  0
SECTION
  2
HEADER
  9
$ACADVER
  1
AC1006
  9
$INSBASE
 10
0.0
 20
0.0
 30
0.0
  9
$EXTMIN
 10
0.0
 20
0.0
  9
$EXTMAX
 10
841.0
 20
594.0
  9
$LIMMIN
 10
0.0
 20
0.0
  9
$LIMMAX
 10
841.0
 20
594.0
  9
$ORTHOMODE
 70
     1
  9
$REGENMODE
 70
     1
  9
$FILLMODE
 70
     1
  9
$QTEXTMODE
 70
     0
  9
$MIRRTEXT
 70
     1
  9
$DRAGMODE
 70
     2
  9
$LTSCALE
 40
1.0
  9
$OSMODE
 70
     0
  9
$ATTMODE
 70
     1
  9
$TEXTSIZE
 40
4.5
  9
$TRACEWID
 40
0.05
  9
$TEXTSTYLE
  7
STANDARD
  9
$CLAYER
  8
L-ZISSEN
  9
$CELTYPE
  6
BYLAYER
  9
$CECOLOR
 62
   256
  9
$DIMSCALE
 40
1.0
  9
$DIMASZ
 40
2.0
  9
$DIMEXO
 40
1.0
  9
$DIMDLI
 40
0.38
  9
$DIMRND
 40
0.0
  9
$DIMDLE
 40
1.0
  9
$DIMEXE
 40
1.0
  9
$DIMTP
 40
0.0
  9
$DIMTM
 40
0.0
  9
$DIMTXT
 40
4.5
  9
$DIMCEN
 40
0.09
  9
$DIMTSZ
 40
0.0
  9
$DIMTOL
 70
     0
  9
$DIMLIM
 70
     0
  9
$DIMTIH
 70
     0
  9
$DIMTOH
 70
     0
  9
$DIMSE1
 70
     0
  9
$DIMSE2
 70
     0
  9
$DIMTAD
 70
     1
  9
$DIMZIN
 70
     0
  9
$DIMBLK
  1

  9
$DIMASO
 70
     0
  9
$DIMSHO
 70
     0
  9
$DIMPOST
  1

  9
$DIMAPOST
  1

  9
$DIMALT
 70
     0
  9
$DIMALTD
 70
     2
  9
$DIMALTF
 40
25.4
  9
$DIMLFAC
 40
1.0
  9
$DIMTOFL
 70
     1
  9
$DIMTVP
 40
0.0
  9
$DIMTIX
 70
     1
  9
$DIMSOXD
 70
     0
  9
$DIMSAH
 70
     0
  9
$DIMBLK1
  1

  9
$DIMBLK2
  1

  9
$LUNITS
 70
     2
  9
$LUPREC
 70
     4
  9
$AXISMODE
 70
     0
  9
$AXISUNIT
 10
0.0
 20
0.0
  9
$SKETCHINC
 40
0.1
  9
$FILLETRAD
 40
5.0
  9
$AUNITS
 70
     0
  9
$AUPREC
 70
     0
  9
$MENU
  1
acad
  9
$ELEVATION
 40
0.0
  9
$THICKNESS
 40
0.0
  9
$LIMCHECK
 70
     0
  9
$BLIPMODE
 70
     1
  9
$CHAMFERA
 40
1.0
  9
$CHAMFERB
 40
1.0
  9
$SKPOLY
 70
     0
  9
$TDCREATE
 40
2449654.7972129630
  9
$TDUPDATE
 40
2449654.7972129630
  9
$TDINDWG
 40
0.0000000000
  9
$TDUSRTIMER
 40
0.0000000000
  9
$USRTIMER
 70
     1
  9
$ANGBASE
 50
0.0
  9
$ANGDIR
 70
     0
  9
$PDMODE
 70
     0
  9
$PDSIZE
 40
0.0
  9
$PLINEWID
 40
0.0
  9
$COORDS
 70
     2
  9
$SPLFRAME
 70
     0
  9
$SPLINETYPE
 70
     6
  9
$SPLINESEGS
 70
     8
  9
$ATTDIA
 70
     0
  9
$ATTREQ
 70
     1
  9
$HANDLING
 70
     0
  9
$HANDSEED
  5
0
  9
$SURFTAB1
 70
     6
  9
$SURFTAB2
 70
     6
  9
$SURFTYPE
 70
     6
  9
$SURFU
 70
     6
  9
$SURFV
 70
     6
  9
$FLATLAND
 70
     0
  9
$UCSNAME
  2

  9
$UCSORG
 10
0.0
 20
0.0
 30
0.0
  9
$UCSXDIR
 10
1.0
 20
0.0
 30
0.0
  9
$UCSYDIR
 10
0.0
 20
1.0
 30
0.0
  9
$USERI1
 70
     0
  9
$USERI2
 70
     0
  9
$USERI3
 70
     0
  9
$USERI4
 70
     0
  9
$USERI5
 70
     0
  9
$USERR1
 40
0.0
  9
$USERR2
 40
0.0
  9
$USERR3
 40
0.0
  9
$USERR4
 40
0.0
  9
$USERR5
 40
0.0
  9
$WORLDVIEW
 70
     1
  0
ENDSEC
  0
SECTION
  2
TABLES
  0
TABLE
  2
VPORT
 70
     2
  0
VPORT
  2
*ACTIVE
 70
     0
 10
0.0
 20
0.0
 11
1.0
 21
1.0
 12
449.505572
 22
312.625647
 13
0.0
 23
0.0
 14
5.0
 24
5.0
 15
0.0
 25
0.0
 16
0.0
 26
0.0
 36
1.0
 17
0.0
 27
0.0
 37
0.0
 40
576.122669
 41
1.5487
 42
50.0
 43
0.0
 44
0.0
 50
0.0
 51
0.0
 71
     0
 72
   100
 73
     1
 74
     0
 75
     0
 76
     0
 77
     0
 78
     0
  0
ENDTAB
  0
TABLE
  2
LTYPE
 70
     2
  0
LTYPE
  2
CONTINUOUS
 70
    64
  3
Solid line
 72
    65
 73
     0
 40
0.0
  0
LTYPE
  2
CENTER
 70
    64
  3
____ _ ____ _ ____ _ ____ _ 
 72
    65
 73
     4
 40
60.0
 49
45.0
 49
-5.0
 49
5.0
 49
-5.0
  0
ENDTAB
  0
TABLE
  2
LAYER
 70
     3
  0
LAYER
  2
0
 70
     0
 62
     7
  6
CONTINUOUS
  0
LAYER
  2
L-ZISSEN
 70
    64
 62
     7
  6
CONTINUOUS
  0
LAYER
  2
L-TYUSIN
 70
    64
 62
     1
  6
CENTER
  0
ENDTAB
  0
TABLE
  2
STYLE
 70
     1
  0
STYLE
  2
STANDARD
 70
    64
 40
0.0
 41
1.0
 50
0.0
 71
     0
 42
4.5
  3
TXT
  4

  0
ENDTAB
  0
TABLE
  2
VIEW
 70
     0
  0
ENDTAB
  0
TABLE
  2
UCS
 70
     0
  0
ENDTAB
  0
TABLE
  2
DWGMGR
 70
     0
  0
ENDTAB
  0
ENDSEC
  0
SECTION
  2
BLOCKS
  0
ENDSEC
  0
SECTION
  2
ENTITIES
  0
LINE
  8
L-TYUSIN
 10
97.0
 20
150.0
 30
0.0
 11
303.0
 21
150.0
 31
0.0
  0
LINE
  8
L-TYUSIN
 10
200.0
 20
520.0
 30
0.0
 11
200.0
 21
380.0
 31
0.0
  0
LINE
  8
L-ZISSEN
 10
270.0
 20
100.0
 30
0.0
 11
270.0
 21
200.0
 31
0.0
  0
LINE
  8
L-ZISSEN
 10
262.0
 20
203.0
 30
0.0
 11
138.0
 21
203.0
 31
0.0
  0
LINE
  8
L-ZISSEN
 10
130.0
 20
200.0
 30
0.0
 11
130.0
 21
100.0
 31
0.0
  0
LINE
  8
L-ZISSEN
 10
160.0
 20
70.0
 30
0.0
 11
240.0
 21
70.0
 31
0.0
  0
LINE
  8
L-ZISSEN
 10
298.0
 20
100.0
 30
0.0
 11
298.0
 21
200.0
 31
0.0
  0
LINE
  8
L-ZISSEN
 10
298.0
 20
100.0
 30
0.0
 11
102.0
 21
100.0
 31
0.0
  0
LINE
  8
L-ZISSEN
 10
298.0
 20
200.0
 30
0.0
 11
245.0
 21
200.0
 31
0.0
  0
LINE
  8
L-ZISSEN
 10
285.0
 20
100.0
 30
0.0
 11
285.0
 21
126.0
 31
0.0
  0
LINE
  8
L-ZISSEN
 10
285.0
 20
174.0
 30
0.0
 11
298.0
 21
174.0
 31
0.0
  0
LINE
  8
L-ZISSEN
 10
285.0
 20
174.0
 30
0.0
 11
285.0
 21
200.0
 31
0.0
  0
LINE
  8
L-ZISSEN
 10
285.0
 20
126.0
 30
0.0
 11
298.0
 21
126.0
 31
0.0
  0
LINE
  8
L-ZISSEN
 10
297.5
 20
105.0
 30
0.0
 11
297.5
 21
121.0
 31
0.0
  0
LINE
  8
L-ZISSEN
 10
297.5
 20
105.0
 30
0.0
 11
285.0
 21
105.0
 31
0.0
  0
LINE
  8
L-ZISSEN
 10
297.5
 20
121.0
 30
0.0
 11
285.0
 21
121.0
 31
0.0
  0
LINE
  8
L-ZISSEN
 10
297.5
 20
179.0
 30
0.0
 11
285.0
 21
179.0
 31
0.0
  0
LINE
  8
L-ZISSEN
 10
297.5
 20
195.0
 30
0.0
 11
285.0
 21
195.0
 31
0.0
  0
LINE
  8
L-ZISSEN
 10
297.5
 20
195.0
 30
0.0
 11
297.5
 21
179.0
 31
0.0
  0
LINE
  8
L-ZISSEN
 10
102.5
 20
195.0
 30
0.0
 11
102.5
 21
179.0
 31
0.0
  0
LINE
  8
L-ZISSEN
 10
102.5
 20
195.0
 30
0.0
 11
115.0
 21
195.0
 31
0.0
  0
LINE
  8
L-ZISSEN
 10
102.5
 20
179.0
 30
0.0
 11
115.0
 21
179.0
 31
0.0
  0
LINE
  8
L-ZISSEN
 10
102.5
 20
121.0
 30
0.0
 11
115.0
 21
121.0
 31
0.0
  0
LINE
  8
L-ZISSEN
 10
102.5
 20
105.0
 30
0.0
 11
115.0
 21
105.0
 31
0.0
  0
LINE
  8
L-ZISSEN
 10
102.5
 20
105.0
 30
0.0
 11
102.5
 21
121.0
 31
0.0
  0
LINE
  8
L-ZISSEN
 10
115.0
 20
126.0
 30
0.0
 11
102.0
 21
126.0
 31
0.0
  0
LINE
  8
L-ZISSEN
 10
115.0
 20
174.0
 30
0.0
 11
115.0
 21
200.0
 31
0.0
  0
LINE
  8
L-ZISSEN
 10
115.0
 20
174.0
 30
0.0
 11
102.0
 21
174.0
 31
0.0
  0
LINE
  8
L-ZISSEN
 10
115.0
 20
100.0
 30
0.0
 11
115.0
 21
126.0
 31
0.0
  0
LINE
  8
L-ZISSEN
 10
102.0
 20
200.0
 30
0.0
 11
155.0
 21
200.0
 31
0.0
  0
LINE
  8
L-ZISSEN
 10
102.0
 20
100.0
 30
0.0
 11
102.0
 21
200.0
 31
0.0
  0
LINE
  8
L-ZISSEN
 10
102.0
 20
400.0
 30
0.0
 11
102.0
 21
500.0
 31
0.0
  0
LINE
  8
L-ZISSEN
 10
102.0
 20
400.0
 30
0.0
 11
161.0
 21
400.0
 31
0.0
  0
LINE
  8
L-ZISSEN
 10
102.0
 20
500.0
 30
0.0
 11
161.0
 21
500.0
 31
0.0
  0
LINE
  8
L-ZISSEN
 10
115.0
 20
400.0
 30
0.0
 11
115.0
 21
426.0
 31
0.0
  0
LINE
  8
L-ZISSEN
 10
115.0
 20
474.0
 30
0.0
 11
102.0
 21
474.0
 31
0.0
  0
LINE
  8
L-ZISSEN
 10
115.0
 20
474.0
 30
0.0
 11
115.0
 21
500.0
 31
0.0
  0
LINE
  8
L-ZISSEN
 10
115.0
 20
426.0
 30
0.0
 11
102.0
 21
426.0
 31
0.0
  0
LINE
  8
L-ZISSEN
 10
102.5
 20
405.0
 30
0.0
 11
102.5
 21
421.0
 31
0.0
  0
LINE
  8
L-ZISSEN
 10
102.5
 20
405.0
 30
0.0
 11
115.0
 21
405.0
 31
0.0
  0
LINE
  8
L-ZISSEN
 10
102.5
 20
421.0
 30
0.0
 11
115.0
 21
421.0
 31
0.0
  0
LINE
  8
L-ZISSEN
 10
102.5
 20
479.0
 30
0.0
 11
115.0
 21
479.0
 31
0.0
  0
LINE
  8
L-ZISSEN
 10
102.5
 20
495.0
 30
0.0
 11
115.0
 21
495.0
 31
0.0
  0
LINE
  8
L-ZISSEN
 10
102.5
 20
495.0
 30
0.0
 11
102.5
 21
479.0
 31
0.0
  0
LINE
  8
L-ZISSEN
 10
297.5
 20
495.0
 30
0.0
 11
297.5
 21
479.0
 31
0.0
  0
LINE
  8
L-ZISSEN
 10
297.5
 20
495.0
 30
0.0
 11
285.0
 21
495.0
 31
0.0
  0
LINE
  8
L-ZISSEN
 10
297.5
 20
479.0
 30
0.0
 11
285.0
 21
479.0
 31
0.0
  0
LINE
  8
L-ZISSEN
 10
297.5
 20
421.0
 30
0.0
 11
285.0
 21
421.0
 31
0.0
  0
LINE
  8
L-ZISSEN
 10
297.5
 20
405.0
 30
0.0
 11
285.0
 21
405.0
 31
0.0
  0
LINE
  8
L-ZISSEN
 10
297.5
 20
405.0
 30
0.0
 11
297.5
 21
421.0
 31
0.0
  0
LINE
  8
L-ZISSEN
 10
285.0
 20
426.0
 30
0.0
 11
298.0
 21
426.0
 31
0.0
  0
LINE
  8
L-ZISSEN
 10
285.0
 20
474.0
 30
0.0
 11
285.0
 21
500.0
 31
0.0
  0
LINE
  8
L-ZISSEN
 10
285.0
 20
474.0
 30
0.0
 11
298.0
 21
474.0
 31
0.0
  0
LINE
  8
L-ZISSEN
 10
285.0
 20
400.0
 30
0.0
 11
285.0
 21
426.0
 31
0.0
  0
LINE
  8
L-ZISSEN
 10
298.0
 20
500.0
 30
0.0
 11
239.0
 21
500.0
 31
0.0
  0
LINE
  8
L-ZISSEN
 10
298.0
 20
400.0
 30
0.0
 11
239.0
 21
400.0
 31
0.0
  0
LINE
  8
L-ZISSEN
 10
298.0
 20
400.0
 30
0.0
 11
298.0
 21
500.0
 31
0.0
  0
LINE
  8
L-ZISSEN
 10
130.0
 20
500.0
 30
0.0
 11
130.0
 21
400.0
 31
0.0
  0
LINE
  8
L-ZISSEN
 10
270.0
 20
400.0
 30
0.0
 11
270.0
 21
500.0
 31
0.0
  0
LINE
  8
L-TYUSIN
 10
97.0
 20
450.0
 30
0.0
 11
303.0
 21
450.0
 31
0.0
  0
LINE
  8
L-TYUSIN
 10
200.0
 20
237.5
 30
0.0
 11
200.0
 21
45.0
 31
0.0
  0
LINE
  8
L-TYUSIN
 10
395.0
 20
150.0
 30
0.0
 11
505.0
 21
150.0
 31
0.0
  0
LINE
  8
L-TYUSIN
 10
450.0
 20
237.5
 30
0.0
 11
450.0
 21
45.0
 31
0.0
  0
LINE
  8
L-ZISSEN
 10
400.0
 20
200.0
 30
0.0
 11
500.0
 21
200.0
 31
0.0
  0
LINE
  8
L-ZISSEN
 10
400.0
 20
100.0
 30
0.0
 11
500.0
 21
100.0
 31
0.0
  0
LINE
  8
L-ZISSEN
 10
400.0
 20
100.0
 30
0.0
 11
400.0
 21
200.0
 31
0.0
  0
LINE
  8
L-ZISSEN
 10
500.0
 20
100.0
 30
0.0
 11
500.0
 21
200.0
 31
0.0
  0
CIRCLE
  8
L-ZISSEN
 10
413.0
 20
187.0
 30
0.0
 40
8.0
  0
ARC
  8
L-ZISSEN
 10
413.0
 20
187.0
 30
0.0
 40
12.0
 50
270.0
 51
0.0
  0
LINE
  8
L-ZISSEN
 10
413.0
 20
175.0
 30
0.0
 11
400.0
 21
175.0
 31
0.0
  0
LINE
  8
L-ZISSEN
 10
425.0
 20
187.0
 30
0.0
 11
425.0
 21
200.0
 31
0.0
  0
LINE
  8
L-ZISSEN
 10
475.0
 20
187.0
 30
0.0
 11
475.0
 21
200.0
 31
0.0
  0
LINE
  8
L-ZISSEN
 10
487.0
 20
175.0
 30
0.0
 11
500.0
 21
175.0
 31
0.0
  0
ARC
  8
L-ZISSEN
 10
487.0
 20
187.0
 30
0.0
 40
12.0
 50
180.0
 51
270.0
  0
CIRCLE
  8
L-ZISSEN
 10
487.0
 20
187.0
 30
0.0
 40
8.0
  0
LINE
  8
L-ZISSEN
 10
425.0
 20
113.0
 30
0.0
 11
425.0
 21
100.0
 31
0.0
  0
LINE
  8
L-ZISSEN
 10
413.0
 20
125.0
 30
0.0
 11
400.0
 21
125.0
 31
0.0
  0
ARC
  8
L-ZISSEN
 10
413.0
 20
113.0
 30
0.0
 40
12.0
 50
0.0
 51
90.0
  0
CIRCLE
  8
L-ZISSEN
 10
413.0
 20
113.0
 30
0.0
 40
8.0
  0
CIRCLE
  8
L-ZISSEN
 10
487.0
 20
113.0
 30
0.0
 40
8.0
  0
ARC
  8
L-ZISSEN
 10
487.0
 20
113.0
 30
0.0
 40
12.0
 50
90.0
 51
180.0
  0
LINE
  8
L-ZISSEN
 10
487.0
 20
125.0
 30
0.0
 11
500.0
 21
125.0
 31
0.0
  0
LINE
  8
L-ZISSEN
 10
475.0
 20
113.0
 30
0.0
 11
475.0
 21
100.0
 31
0.0
  0
LINE
  8
L-ZISSEN
 10
244.0
 20
84.928203
 30
0.0
 11
244.0
 21
100.0
 31
0.0
  0
LINE
  8
L-ZISSEN
 10
240.0
 20
70.0
 30
0.0
 11
244.0
 21
84.928203
 31
0.0
  0
LINE
  8
L-ZISSEN
 10
160.0
 20
70.0
 30
0.0
 11
156.0
 21
84.928203
 31
0.0
  0
LINE
  8
L-ZISSEN
 10
156.0
 20
84.928203
 30
0.0
 11
156.0
 21
100.0
 31
0.0
  0
LINE
  8
L-ZISSEN
 10
156.0
 20
84.928203
 30
0.0
 11
244.0
 21
84.928203
 31
0.0
  0
ARC
  8
L-ZISSEN
 10
200.0
 20
450.0
 30
0.0
 40
62.0
 50
9.281799
 51
170.718201
  0
LINE
  8
L-ZISSEN
 10
245.0
 20
400.0
 30
0.0
 11
245.0
 21
407.350264
 31
0.0
  0
LINE
  8
L-ZISSEN
 10
245.0
 20
400.0
 30
0.0
 11
241.269281
 21
403.730719
 31
0.0
  0
LINE
  8
L-ZISSEN
 10
245.0
 20
500.0
 30
0.0
 11
241.269281
 21
496.269281
 31
0.0
  0
LINE
  8
L-ZISSEN
 10
155.0
 20
400.0
 30
0.0
 11
158.730719
 21
403.730719
 31
0.0
  0
LINE
  8
L-ZISSEN
 10
155.0
 20
500.0
 30
0.0
 11
158.730719
 21
496.269281
 31
0.0
  0
LINE
  8
L-ZISSEN
 10
155.0
 20
400.0
 30
0.0
 11
155.0
 21
407.350264
 31
0.0
  0
LINE
  8
L-ZISSEN
 10
239.0
 20
401.80249
 30
0.0
 11
239.0
 21
400.0
 31
0.0
  0
LINE
  8
L-ZISSEN
 10
239.0
 20
498.19751
 30
0.0
 11
239.0
 21
500.0
 31
0.0
  0
LINE
  8
L-ZISSEN
 10
161.0
 20
498.19751
 30
0.0
 11
161.0
 21
500.0
 31
0.0
  0
LINE
  8
L-ZISSEN
 10
161.0
 20
401.80249
 30
0.0
 11
161.0
 21
400.0
 31
0.0
  0
LINE
  8
L-ZISSEN
 10
245.0
 20
100.0
 30
0.0
 11
245.0
 21
144.0
 31
0.0
  0
ARC
  8
L-ZISSEN
 10
245.0
 20
150.0
 30
0.0
 40
6.0
 50
90.0
 51
270.0
  0
LINE
  8
L-ZISSEN
 10
245.0
 20
156.0
 30
0.0
 11
245.0
 21
200.0
 31
0.0
  0
LINE
  8
L-ZISSEN
 10
155.0
 20
100.0
 30
0.0
 11
155.0
 21
144.0
 31
0.0
  0
ARC
  8
L-ZISSEN
 10
155.0
 20
150.0
 30
0.0
 40
6.0
 50
270.0
 51
90.0
  0
LINE
  8
L-ZISSEN
 10
155.0
 20
156.0
 30
0.0
 11
155.0
 21
200.0
 31
0.0
  0
LINE
  8
L-ZISSEN
 10
245.0
 20
188.0
 30
0.0
 11
155.0
 21
188.0
 31
0.0
  0
LINE
  8
L-ZISSEN
 10
512.0
 20
203.0
 30
0.0
 11
388.0
 21
203.0
 31
0.0
  0
LINE
  8
L-ZISSEN
 10
512.0
 20
188.0
 30
0.0
 11
512.0
 21
220.5
 31
0.0
  0
LINE
  8
L-ZISSEN
 10
512.0
 20
188.0
 30
0.0
 11
500.0
 21
176.0
 31
0.0
  0
LINE
  8
L-ZISSEN
 10
388.0
 20
188.0
 30
0.0
 11
400.0
 21
176.0
 31
0.0
  0
LINE
  8
L-ZISSEN
 10
388.0
 20
188.0
 30
0.0
 11
388.0
 21
220.5
 31
0.0
  0
ARC
  8
L-ZISSEN
 10
163.051075
 20
188.0
 30
0.0
 40
8.051075
 50
180.0
 51
226.000099
  0
ARC
  8
L-ZISSEN
 10
180.498199
 20
206.067089
 30
0.0
 40
33.167242
 50
226.000099
 51
248.198591
  0
ARC
  8
L-ZISSEN
 10
192.240687
 20
235.423307
 30
0.0
 40
64.784857
 50
248.198591
 51
260.592388
  0
ARC
  8
L-ZISSEN
 10
200.0
 20
282.254906
 30
0.0
 40
112.254906
 50
260.592388
 51
270.0
  0
ARC
  8
L-ZISSEN
 10
200.0
 20
282.254906
 30
0.0
 40
112.254906
 50
270.0
 51
279.407612
  0
ARC
  8
L-ZISSEN
 10
207.759313
 20
235.423307
 30
0.0
 40
64.784857
 50
279.407612
 51
291.801409
  0
ARC
  8
L-ZISSEN
 10
219.501801
 20
206.067089
 30
0.0
 40
33.167242
 50
291.801409
 51
313.999901
  0
ARC
  8
L-ZISSEN
 10
236.948925
 20
188.0
 30
0.0
 40
8.051075
 50
313.999901
 51
0.0
  0
LINE
  8
L-ZISSEN
 10
410.0
 20
70.0
 30
0.0
 11
490.0
 21
70.0
 31
0.0
  0
LINE
  8
L-ZISSEN
 10
406.0
 20
84.928203
 30
0.0
 11
494.0
 21
84.928203
 31
0.0
  0
LINE
  8
L-ZISSEN
 10
410.0
 20
70.0
 30
0.0
 11
406.0
 21
84.928203
 31
0.0
  0
LINE
  8
L-ZISSEN
 10
406.0
 20
84.928203
 30
0.0
 11
406.0
 21
100.0
 31
0.0
  0
LINE
  8
L-ZISSEN
 10
494.0
 20
84.928203
 30
0.0
 11
494.0
 21
100.0
 31
0.0
  0
LINE
  8
L-ZISSEN
 10
490.0
 20
70.0
 30
0.0
 11
494.0
 21
84.928203
 31
0.0
  0
LINE
  8
L-ZISSEN
 10
160.0
 20
50.0
 30
0.0
 11
240.0
 21
50.0
 31
0.0
  0
LINE
  8
L-ZISSEN
 10
160.0
 20
64.0
 30
0.0
 11
240.0
 21
64.0
 31
0.0
  0
LINE
  8
L-ZISSEN
 10
240.0
 20
70.0
 30
0.0
 11
240.0
 21
50.0
 31
0.0
  0
LINE
  8
L-ZISSEN
 10
160.0
 20
70.0
 30
0.0
 11
160.0
 21
50.0
 31
0.0
  0
LINE
  8
L-ZISSEN
 10
194.343146
 20
64.0
 30
0.0
 11
194.343146
 21
50.0
 31
0.0
  0
LINE
  8
L-ZISSEN
 10
205.656854
 20
64.0
 30
0.0
 11
205.656854
 21
50.0
 31
0.0
  0
LINE
  8
L-ZISSEN
 10
455.656854
 20
64.0
 30
0.0
 11
455.656854
 21
50.0
 31
0.0
  0
LINE
  8
L-ZISSEN
 10
444.343146
 20
64.0
 30
0.0
 11
444.343146
 21
50.0
 31
0.0
  0
LINE
  8
L-ZISSEN
 10
410.0
 20
64.0
 30
0.0
 11
490.0
 21
64.0
 31
0.0
  0
LINE
  8
L-ZISSEN
 10
410.0
 20
70.0
 30
0.0
 11
410.0
 21
50.0
 31
0.0
  0
LINE
  8
L-ZISSEN
 10
410.0
 20
50.0
 30
0.0
 11
490.0
 21
50.0
 31
0.0
  0
LINE
  8
L-ZISSEN
 10
490.0
 20
70.0
 30
0.0
 11
490.0
 21
50.0
 31
0.0
  0
LINE
  8
L-ZISSEN
 10
265.0
 20
204.5
 30
0.0
 11
135.0
 21
204.5
 31
0.0
  0
LINE
  8
L-ZISSEN
 10
265.0
 20
232.5
 30
0.0
 11
135.0
 21
232.5
 31
0.0
  0
LINE
  8
L-ZISSEN
 10
262.0
 20
220.5
 30
0.0
 11
138.0
 21
220.5
 31
0.0
  0
LINE
  8
L-ZISSEN
 10
135.0
 20
232.5
 30
0.0
 11
135.0
 21
204.5
 31
0.0
  0
LINE
  8
L-ZISSEN
 10
265.0
 20
232.5
 30
0.0
 11
265.0
 21
204.5
 31
0.0
  0
LINE
  8
L-ZISSEN
 10
138.0
 20
220.5
 30
0.0
 11
138.0
 21
200.0
 31
0.0
  0
LINE
  8
L-ZISSEN
 10
512.0
 20
220.5
 30
0.0
 11
460.0
 21
220.5
 31
0.0
  0
LINE
  8
L-ZISSEN
 10
404.0
 20
232.5
 30
0.0
 11
404.0
 21
228.0
 31
0.0
  0
LINE
  8
L-ZISSEN
 10
496.0
 20
232.5
 30
0.0
 11
496.0
 21
228.0
 31
0.0
  0
LINE
  8
L-ZISSEN
 10
496.0
 20
232.5
 30
0.0
 11
404.0
 21
232.5
 31
0.0
  0
LINE
  8
L-ZISSEN
 10
262.0
 20
220.5
 30
0.0
 11
262.0
 21
200.0
 31
0.0
  0
ARC
  8
L-ZISSEN
 10
450.0
 20
222.5
 30
0.0
 40
10.0
 50
0.0
 51
180.0
  0
LINE
  8
L-ZISSEN
 10
440.0
 20
220.5
 30
0.0
 11
388.0
 21
220.5
 31
0.0
  0
LINE
  8
L-ZISSEN
 10
155.0
 20
492.649736
 30
0.0
 11
155.0
 21
500.0
 31
0.0
  0
LINE
  8
L-ZISSEN
 10
245.0
 20
492.649736
 30
0.0
 11
245.0
 21
500.0
 31
0.0
  0
LINE
  8
L-ZISSEN
 10
135.0
 20
440.0
 30
0.0
 11
135.0
 21
460.0
 31
0.0
  0
LINE
  8
L-ZISSEN
 10
135.0
 20
460.0
 30
0.0
 11
155.100111
 21
460.0
 31
0.0
  0
LINE
  8
L-ZISSEN
 10
135.0
 20
440.0
 30
0.0
 11
155.100111
 21
440.0
 31
0.0
  0
ARC
  8
L-ZISSEN
 10
200.0
 20
450.0
 30
0.0
 40
62.0
 50
189.281799
 51
350.718201
  0
CIRCLE
  8
L-ZISSEN
 10
450.0
 20
150.0
 30
0.0
 40
19.476
  0
CIRCLE
  8
L-ZISSEN
 10
685.0
 20
260.0
 30
0.0
 40
27.0
  0
LINE
  8
L-ZISSEN
 10
669.443651
 20
275.556349
 30
0.0
 11
693.485281
 21
251.514719
 31
0.0
  0
LINE
  8
L-ZISSEN
 10
750.0
 20
287.0
 30
0.0
 11
750.0
 21
233.0
 31
0.0
  0
LINE
  8
L-ZISSEN
 10
755.0
 20
287.0
 30
0.0
 11
755.0
 21
233.0
 31
0.0
  0
LINE
  8
L-ZISSEN
 10
773.5
 20
286.0
 30
0.0
 11
773.5
 21
234.0
 31
0.0
  0
LINE
  8
L-ZISSEN
 10
773.5
 20
234.0
 30
0.0
 11
755.0
 21
234.0
 31
0.0
  0
LINE
  8
L-ZISSEN
 10
755.0
 20
233.0
 30
0.0
 11
750.0
 21
233.0
 31
0.0
  0
LINE
  8
L-ZISSEN
 10
773.5
 20
286.0
 30
0.0
 11
755.0
 21
286.0
 31
0.0
  0
LINE
  8
L-ZISSEN
 10
755.0
 20
287.0
 30
0.0
 11
750.0
 21
287.0
 31
0.0
  0
LINE
  8
L-ZISSEN
 10
773.5
 20
266.0
 30
0.0
 11
779.5
 21
266.0
 31
0.0
  0
LINE
  8
L-ZISSEN
 10
779.5
 20
266.0
 30
0.0
 11
779.5
 21
254.0
 31
0.0
  0
LINE
  8
L-ZISSEN
 10
779.5
 20
254.0
 30
0.0
 11
773.5
 21
254.0
 31
0.0
  0
LINE
  8
L-ZISSEN
 10
779.5
 20
264.864
 30
0.0
 11
786.0
 21
264.864
 31
0.0
  0
LINE
  8
L-ZISSEN
 10
779.5
 20
255.136
 30
0.0
 11
786.0
 21
255.136
 31
0.0
  0
SOLID
  8
L-ZISSEN
 10
683.463557
 20
258.676952
 30
0.0
 11
683.975705
 21
258.250163
 31
0.0
 12
685.0
 22
260.0
 32
0.0
 13
685.0
 23
260.0
 33
0.0
  0
LINE
  8
L-ZISSEN
 10
683.719631
 20
258.463557
 30
0.0
 11
660.0
 21
230.0
 31
0.0
  0
LINE
  8
L-ZISSEN
 10
660.0
 20
230.0
 30
0.0
 11
658.0
 21
230.0
 31
0.0
  0
TEXT
  8
L-ZISSEN
 10
647.0
 20
227.75
 30
0.0
 40
4.5
  1
P.P
  0
LINE
  8
L-ZISSEN
 10
689.864
 20
338.5
 30
0.0
 11
689.864
 21
345.0
 31
0.0
  0
LINE
  8
L-ZISSEN
 10
680.136
 20
338.5
 30
0.0
 11
680.136
 21
345.0
 31
0.0
  0
LINE
  8
L-ZISSEN
 10
691.0
 20
338.5
 30
0.0
 11
691.0
 21
332.5
 31
0.0
  0
LINE
  8
L-ZISSEN
 10
679.0
 20
338.5
 30
0.0
 11
691.0
 21
338.5
 31
0.0
  0
LINE
  8
L-ZISSEN
 10
679.0
 20
332.5
 30
0.0
 11
679.0
 21
338.5
 31
0.0
  0
LINE
  8
L-ZISSEN
 10
658.0
 20
314.0
 30
0.0
 11
658.0
 21
309.0
 31
0.0
  0
LINE
  8
L-ZISSEN
 10
659.0
 20
332.5
 30
0.0
 11
659.0
 21
314.0
 31
0.0
  0
LINE
  8
L-ZISSEN
 10
712.0
 20
314.0
 30
0.0
 11
712.0
 21
309.0
 31
0.0
  0
LINE
  8
L-ZISSEN
 10
711.0
 20
332.5
 30
0.0
 11
711.0
 21
314.0
 31
0.0
  0
LINE
  8
L-ZISSEN
 10
659.0
 20
332.5
 30
0.0
 11
711.0
 21
332.5
 31
0.0
  0
LINE
  8
L-ZISSEN
 10
658.0
 20
314.0
 30
0.0
 11
712.0
 21
314.0
 31
0.0
  0
LINE
  8
L-ZISSEN
 10
658.0
 20
309.0
 30
0.0
 11
712.0
 21
309.0
 31
0.0
  0
LINE
  8
L-TYUSIN
 10
635.0
 20
215.0
 30
0.0
 11
815.0
 21
215.0
 31
0.0
  0
LINE
  8
L-ZISSEN
  6
CONTINUOUS
 62
     7
 10
722.0
 20
61.5
 30
0.0
 11
722.0
 21
80.0
 31
0.0
  0
LINE
  8
L-ZISSEN
  6
CONTINUOUS
 62
     7
 10
774.0
 20
80.0
 30
0.0
 11
774.0
 21
61.5
 31
0.0
  0
LINE
  8
L-ZISSEN
  6
CONTINUOUS
 62
     7
 10
721.0
 20
80.0
 30
0.0
 11
775.0
 21
80.0
 31
0.0
  0
LINE
  8
L-ZISSEN
  6
CONTINUOUS
 62
     7
 10
775.0
 20
85.0
 30
0.0
 11
775.0
 21
80.0
 31
0.0
  0
LINE
  8
L-ZISSEN
  6
CONTINUOUS
 62
     7
 10
774.0
 20
61.5
 30
0.0
 11
722.0
 21
61.5
 31
0.0
  0
LINE
  8
L-ZISSEN
  6
CONTINUOUS
 62
     7
 10
721.0
 20
85.0
 30
0.0
 11
721.0
 21
80.0
 31
0.0
  0
LINE
  8
L-ZISSEN
  6
CONTINUOUS
 62
     7
 10
721.0
 20
85.0
 30
0.0
 11
775.0
 21
85.0
 31
0.0
  0
LINE
  8
L-ZISSEN
  6
CONTINUOUS
 62
     7
 10
786.0
 20
64.75
 30
0.0
 11
781.0
 21
64.75
 31
0.0
  0
LINE
  8
L-ZISSEN
  6
CONTINUOUS
 62
     7
 10
786.0
 20
75.25
 30
0.0
 11
781.0
 21
75.25
 31
0.0
  0
LINE
  8
L-ZISSEN
  6
CONTINUOUS
 62
     7
 10
781.0
 20
64.0
 30
0.0
 11
774.0
 21
64.0
 31
0.0
  0
LINE
  8
L-ZISSEN
  6
CONTINUOUS
 62
     7
 10
781.0
 20
76.0
 30
0.0
 11
781.0
 21
64.0
 31
0.0
  0
LINE
  8
L-ZISSEN
  6
CONTINUOUS
 62
     7
 10
774.0
 20
76.0
 30
0.0
 11
781.0
 21
76.0
 31
0.0
  0
TEXT
  8
L-ZISSEN
 10
645.0
 20
375.0
 30
0.0
 40
4.5
  1
T TYPE PRESSURE GAUGE
  0
LINE
  8
L-ZISSEN
  6
CONTINUOUS
 62
     7
 10
658.0
 20
85.0
 30
0.0
 11
712.0
 21
85.0
 31
0.0
  0
LINE
  8
L-ZISSEN
  6
CONTINUOUS
 62
     7
 10
658.0
 20
85.0
 30
0.0
 11
658.0
 21
80.0
 31
0.0
  0
LINE
  8
L-ZISSEN
  6
CONTINUOUS
 62
     7
 10
711.0
 20
61.5
 30
0.0
 11
659.0
 21
61.5
 31
0.0
  0
LINE
  8
L-ZISSEN
  6
CONTINUOUS
 62
     7
 10
712.0
 20
85.0
 30
0.0
 11
712.0
 21
80.0
 31
0.0
  0
LINE
  8
L-ZISSEN
  6
CONTINUOUS
 62
     7
 10
658.0
 20
80.0
 30
0.0
 11
712.0
 21
80.0
 31
0.0
  0
LINE
  8
L-ZISSEN
  6
CONTINUOUS
 62
     7
 10
711.0
 20
80.0
 30
0.0
 11
711.0
 21
61.5
 31
0.0
  0
LINE
  8
L-ZISSEN
  6
CONTINUOUS
 62
     7
 10
659.0
 20
61.5
 30
0.0
 11
659.0
 21
80.0
 31
0.0
  0
CIRCLE
  8
L-ZISSEN
 10
685.0
 20
130.0
 30
0.0
 40
27.0
  0
LINE
  8
L-ZISSEN
 10
700.556349
 20
114.443651
 30
0.0
 11
676.514719
 21
138.485281
 31
0.0
  0
LINE
  8
L-ZISSEN
  6
CONTINUOUS
 62
     7
 10
690.25
 20
168.0
 30
0.0
 11
690.25
 21
163.0
 31
0.0
  0
LINE
  8
L-ZISSEN
  6
CONTINUOUS
 62
     7
 10
679.75
 20
168.0
 30
0.0
 11
679.75
 21
163.0
 31
0.0
  0
LINE
  8
L-ZISSEN
  6
CONTINUOUS
 62
     7
 10
691.0
 20
163.0
 30
0.0
 11
691.0
 21
156.324893
 31
0.0
  0
LINE
  8
L-ZISSEN
  6
CONTINUOUS
 62
     7
 10
679.0
 20
163.0
 30
0.0
 11
691.0
 21
163.0
 31
0.0
  0
LINE
  8
L-ZISSEN
  6
CONTINUOUS
 62
     7
 10
679.0
 20
156.324893
 30
0.0
 11
679.0
 21
163.0
 31
0.0
  0
SOLID
  8
L-ZISSEN
 10
683.61325
 20
68.520799
 30
0.0
 11
684.16795
 21
68.150999
 31
0.0
 12
685.0
 22
70.0
 32
0.0
 13
685.0
 23
70.0
 33
0.0
  0
LINE
  8
L-ZISSEN
 10
683.8906
 20
68.335899
 30
0.0
 11
675.0
 21
55.0
 31
0.0
  0
LINE
  8
L-ZISSEN
 10
675.0
 20
55.0
 30
0.0
 11
673.0
 21
55.0
 31
0.0
  0
TEXT
  8
L-ZISSEN
 10
662.0
 20
52.75
 30
0.0
 40
4.5
  1
P.P
  0
TEXT
  8
L-ZISSEN
 10
645.0
 20
200.0
 30
0.0
 40
4.5
  1
Q TYPE PRESSURE GAUGE
  0
LINE
  8
L-TYUSIN
 10
635.0
 20
395.0
 30
0.0
 11
635.0
 21
35.0
 31
0.0
  0
CIRCLE
  8
L-ZISSEN
 10
155.0
 20
150.0
 30
0.0
 40
4.283
  0
CIRCLE
  8
L-ZISSEN
 10
245.0
 20
150.0
 30
0.0
 40
4.283
  0
CIRCLE
  8
L-ZISSEN
 10
200.0
 20
505.0
 30
0.0
 40
5.0
  0
CIRCLE
  8
L-ZISSEN
 10
167.671811
 20
494.495935
 30
0.0
 40
5.0
  0
CIRCLE
  8
L-ZISSEN
 10
147.691892
 20
466.995935
 30
0.0
 40
5.0
  0
CIRCLE
  8
L-ZISSEN
 10
232.328189
 20
494.495935
 30
0.0
 40
5.0
  0
CIRCLE
  8
L-ZISSEN
 10
232.328189
 20
405.504065
 30
0.0
 40
5.0
  0
CIRCLE
  8
L-ZISSEN
 10
200.0
 20
395.0
 30
0.0
 40
5.0
  0
CIRCLE
  8
L-ZISSEN
 10
167.671811
 20
405.504065
 30
0.0
 40
5.0
  0
CIRCLE
  8
L-ZISSEN
 10
147.691892
 20
433.004065
 30
0.0
 40
5.0
  0
LINE
  8
L-ZISSEN
 10
152.691892
 20
228.0
 30
0.0
 11
142.691892
 21
228.0
 31
0.0
  0
LINE
  8
L-ZISSEN
 10
142.691892
 20
228.0
 30
0.0
 11
142.691892
 21
220.5
 31
0.0
  0
LINE
  8
L-ZISSEN
 10
152.691892
 20
228.0
 30
0.0
 11
152.691892
 21
220.5
 31
0.0
  0
LINE
  8
L-ZISSEN
 10
172.671811
 20
228.0
 30
0.0
 11
162.671811
 21
228.0
 31
0.0
  0
LINE
  8
L-ZISSEN
 10
162.671811
 20
228.0
 30
0.0
 11
162.671811
 21
220.5
 31
0.0
  0
LINE
  8
L-ZISSEN
 10
172.671811
 20
228.0
 30
0.0
 11
172.671811
 21
220.5
 31
0.0
  0
LINE
  8
L-ZISSEN
 10
205.0
 20
228.0
 30
0.0
 11
195.0
 21
228.0
 31
0.0
  0
LINE
  8
L-ZISSEN
 10
205.0
 20
228.0
 30
0.0
 11
205.0
 21
220.5
 31
0.0
  0
LINE
  8
L-ZISSEN
 10
195.0
 20
228.0
 30
0.0
 11
195.0
 21
220.5
 31
0.0
  0
LINE
  8
L-ZISSEN
 10
227.328189
 20
228.0
 30
0.0
 11
227.328189
 21
220.5
 31
0.0
  0
LINE
  8
L-ZISSEN
 10
237.328189
 20
228.0
 30
0.0
 11
237.328189
 21
220.5
 31
0.0
  0
LINE
  8
L-ZISSEN
 10
227.328189
 20
228.0
 30
0.0
 11
237.328189
 21
228.0
 31
0.0
  0
LINE
  8
L-ZISSEN
 10
247.308108
 20
228.0
 30
0.0
 11
247.308108
 21
220.5
 31
0.0
  0
LINE
  8
L-ZISSEN
 10
257.308108
 20
228.0
 30
0.0
 11
257.308108
 21
220.5
 31
0.0
  0
LINE
  8
L-ZISSEN
 10
247.308108
 20
228.0
 30
0.0
 11
257.308108
 21
228.0
 31
0.0
  0
LINE
  8
L-ZISSEN
 10
390.0
 20
228.0
 30
0.0
 11
390.0
 21
220.5
 31
0.0
  0
LINE
  8
L-ZISSEN
 10
390.0
 20
228.0
 30
0.0
 11
400.0
 21
228.0
 31
0.0
  0
LINE
  8
L-ZISSEN
 10
400.0
 20
228.0
 30
0.0
 11
400.0
 21
220.5
 31
0.0
  0
LINE
  8
L-ZISSEN
 10
400.504065
 20
228.0
 30
0.0
 11
410.504065
 21
228.0
 31
0.0
  0
LINE
  8
L-ZISSEN
 10
400.504065
 20
228.0
 30
0.0
 11
400.504065
 21
220.5
 31
0.0
  0
LINE
  8
L-ZISSEN
 10
410.504065
 20
228.0
 30
0.0
 11
410.504065
 21
220.5
 31
0.0
  0
LINE
  8
L-ZISSEN
 10
428.004065
 20
228.0
 30
0.0
 11
438.004065
 21
228.0
 31
0.0
  0
LINE
  8
L-ZISSEN
 10
438.004065
 20
228.0
 30
0.0
 11
438.004065
 21
220.5
 31
0.0
  0
LINE
  8
L-ZISSEN
 10
428.004065
 20
228.0
 30
0.0
 11
428.004065
 21
220.5
 31
0.0
  0
LINE
  8
L-ZISSEN
 10
499.495935
 20
228.0
 30
0.0
 11
489.495935
 21
228.0
 31
0.0
  0
LINE
  8
L-ZISSEN
 10
510.0
 20
228.0
 30
0.0
 11
500.0
 21
228.0
 31
0.0
  0
LINE
  8
L-ZISSEN
 10
510.0
 20
228.0
 30
0.0
 11
510.0
 21
220.5
 31
0.0
  0
LINE
  8
L-ZISSEN
 10
500.0
 20
228.0
 30
0.0
 11
500.0
 21
220.5
 31
0.0
  0
LINE
  8
L-ZISSEN
 10
499.495935
 20
228.0
 30
0.0
 11
499.495935
 21
220.5
 31
0.0
  0
LINE
  8
L-ZISSEN
 10
489.495935
 20
228.0
 30
0.0
 11
489.495935
 21
220.5
 31
0.0
  0
LINE
  8
L-ZISSEN
 10
461.995935
 20
228.0
 30
0.0
 11
461.995935
 21
220.5
 31
0.0
  0
LINE
  8
L-ZISSEN
 10
471.995935
 20
228.0
 30
0.0
 11
461.995935
 21
228.0
 31
0.0
  0
LINE
  8
L-ZISSEN
 10
471.995935
 20
228.0
 30
0.0
 11
471.995935
 21
220.5
 31
0.0
  0
SOLID
  8
L-ZISSEN
 10
100.279784
 20
148.926703
 30
0.0
 11
100.720865
 21
148.426811
 31
0.0
 12
102.0
 22
150.0
 32
0.0
 13
102.0
 23
150.0
 33
0.0
  0
LINE
  8
L-ZISSEN
 10
100.500324
 20
148.676757
 30
0.0
 11
85.0
 21
135.0
 31
0.0
  0
LINE
  8
L-ZISSEN
 10
85.0
 20
135.0
 30
0.0
 11
83.0
 21
135.0
 31
0.0
  0
TEXT
  8
L-ZISSEN
 10
75.0
 20
132.75
 30
0.0
 40
4.5
  1
IN
  0
TEXT
  8
L-ZISSEN
 10
50.0
 20
125.0
 30
0.0
 40
4.5
  1
Rc 1-1/4
  0
TEXT
  8
L-ZISSEN
 10
50.0
 20
115.0
 30
0.0
 40
4.5
  1
Rc 1-1/2
  0
TEXT
  8
L-ZISSEN
 10
50.0
 20
105.0
 30
0.0
 40
4.5
  1
Rc 2
  0
SOLID
  8
L-ZISSEN
 10
154.191548
 20
148.14056
 30
0.0
 11
154.83831
 21
147.97887
 31
0.0
 12
155.0
 22
150.0
 32
0.0
 13
155.0
 23
150.0
 33
0.0
  0
LINE
  8
L-ZISSEN
 10
154.514929
 20
148.059715
 30
0.0
 11
140.0
 21
90.0
 31
0.0
  0
LINE
  8
L-ZISSEN
 10
140.0
 20
90.0
 30
0.0
 11
138.0
 21
90.0
 31
0.0
  0
TEXT
  8
L-ZISSEN
 10
127.0
 20
87.75
 30
0.0
 40
4.5
  1
P.P
  0
SOLID
  8
L-ZISSEN
 10
245.16169
 20
147.97887
 30
0.0
 11
245.808452
 21
148.14056
 31
0.0
 12
245.0
 22
150.0
 32
0.0
 13
245.0
 23
150.0
 33
0.0
  0
LINE
  8
L-ZISSEN
 10
245.485071
 20
148.059715
 30
0.0
 11
260.0
 21
90.0
 31
0.0
  0
LINE
  8
L-ZISSEN
 10
260.0
 20
90.0
 30
0.0
 11
262.0
 21
90.0
 31
0.0
  0
TEXT
  8
L-ZISSEN
 10
264.0
 20
87.75
 30
0.0
 40
4.5
  1
P.P
  0
SOLID
  8
L-ZISSEN
 10
398.350084
 20
148.821489
 30
0.0
 11
398.821489
 21
148.350084
 31
0.0
 12
400.0
 22
150.0
 32
0.0
 13
400.0
 23
150.0
 33
0.0
  0
LINE
  8
L-ZISSEN
 10
398.585786
 20
148.585786
 30
0.0
 11
390.0
 21
140.0
 31
0.0
  0
LINE
  8
L-ZISSEN
 10
390.0
 20
140.0
 30
0.0
 11
388.0
 21
140.0
 31
0.0
  0
TEXT
  8
L-ZISSEN
 10
377.0
 20
137.75
 30
0.0
 40
4.5
  1
P.P
  0
SOLID
  8
L-ZISSEN
 10
787.433721
 20
68.566279
 30
0.0
 11
787.821213
 21
69.108768
 31
0.0
 12
786.0
 22
70.0
 32
0.0
 13
786.0
 23
70.0
 33
0.0
  0
LINE
  8
L-ZISSEN
 10
787.627467
 20
68.837524
 30
0.0
 11
800.0
 21
60.0
 31
0.0
  0
LINE
  8
L-ZISSEN
 10
800.0
 20
60.0
 30
0.0
 11
802.0
 21
60.0
 31
0.0
  0
TEXT
  8
L-ZISSEN
 10
804.0
 20
57.75
 30
0.0
 40
4.5
  1
P.P
  0
SOLID
  8
L-ZISSEN
 10
787.433721
 20
258.566279
 30
0.0
 11
787.821213
 21
259.108768
 31
0.0
 12
786.0
 22
260.0
 32
0.0
 13
786.0
 23
260.0
 33
0.0
  0
LINE
  8
L-ZISSEN
 10
787.627467
 20
258.837524
 30
0.0
 11
800.0
 21
250.0
 31
0.0
  0
LINE
  8
L-ZISSEN
 10
800.0
 20
250.0
 30
0.0
 11
802.0
 21
250.0
 31
0.0
  0
TEXT
  8
L-ZISSEN
 10
804.0
 20
247.75
 30
0.0
 40
4.5
  1
P.P
  0
SOLID
  8
L-ZISSEN
 10
246.178511
 20
398.350084
 30
0.0
 11
246.649916
 21
398.821489
 31
0.0
 12
245.0
 22
400.0
 32
0.0
 13
245.0
 23
400.0
 33
0.0
  0
LINE
  8
L-ZISSEN
 10
246.414214
 20
398.585786
 30
0.0
 11
255.0
 21
390.0
 31
0.0
  0
LINE
  8
L-ZISSEN
 10
255.0
 20
390.0
 30
0.0
 11
257.0
 21
390.0
 31
0.0
  0
TEXT
  8
L-ZISSEN
 10
259.0
 20
387.75
 30
0.0
 40
4.5
  1
P.P
  0
SOLID
  8
L-ZISSEN
 10
153.350084
 20
398.821489
 30
0.0
 11
153.821489
 21
398.350084
 31
0.0
 12
155.0
 22
400.0
 32
0.0
 13
155.0
 23
400.0
 33
0.0
  0
LINE
  8
L-ZISSEN
 10
153.585786
 20
398.585786
 30
0.0
 11
145.0
 21
390.0
 31
0.0
  0
LINE
  8
L-ZISSEN
 10
145.0
 20
390.0
 30
0.0
 11
143.0
 21
390.0
 31
0.0
  0
TEXT
  8
L-ZISSEN
 10
132.0
 20
387.75
 30
0.0
 40
4.5
  1
P.P
  0
SOLID
  8
L-ZISSEN
 10
686.19257
 20
346.639783
 30
0.0
 11
685.596285
 21
346.937926
 31
0.0
 12
685.0
 22
345.0
 32
0.0
 13
685.0
 23
345.0
 33
0.0
  0
LINE
  8
L-ZISSEN
 10
685.894427
 20
346.788854
 30
0.0
 11
690.0
 21
355.0
 31
0.0
  0
LINE
  8
L-ZISSEN
 10
690.0
 20
355.0
 30
0.0
 11
692.0
 21
355.0
 31
0.0
  0
TEXT
  8
L-ZISSEN
 10
694.0
 20
352.75
 30
0.0
 40
4.5
  1
P.P
  0
SOLID
  8
L-ZISSEN
 10
686.076923
 20
169.717949
 30
0.0
 11
685.461538
 21
169.974359
 31
0.0
 12
685.0
 22
168.0
 32
0.0
 13
685.0
 23
168.0
 33
0.0
  0
LINE
  8
L-ZISSEN
 10
685.769231
 20
169.846154
 30
0.0
 11
690.0
 21
180.0
 31
0.0
  0
LINE
  8
L-ZISSEN
 10
690.0
 20
180.0
 30
0.0
 11
692.0
 21
180.0
 31
0.0
  0
TEXT
  8
L-ZISSEN
 10
694.0
 20
177.75
 30
0.0
 40
4.5
  1
P.P
  0
TEXT
  8
L-ZISSEN
 10
100.0
 20
555.0
 30
0.0
 40
4.5
  1
MODEL No. : RVD-5  F
  0
TEXT
  8
L-ZISSEN
 10
172.0
 20
562.0
 30
0.0
 40
4.5
  1
12
  0
TEXT
  8
L-ZISSEN
 10
172.0
 20
555.0
 30
0.0
 40
4.5
  1
14
  0
TEXT
  8
L-ZISSEN
 10
172.0
 20
548.0
 30
0.0
 40
4.5
  1
20
  0
LINE
  8
L-TYUSIN
 10
143.227495
 20
220.5
 30
0.0
 11
130.254763
 21
220.5
 31
0.0
  0
CIRCLE
  8
L-ZISSEN
 10
200.0
 20
450.0
 30
0.0
 40
46.0
  0
LINE
  8
L-ZISSEN
 10
265.0
 20
460.0
 30
0.0
 11
244.899889
 21
460.0
 31
0.0
  0
LINE
  8
L-ZISSEN
 10
265.0
 20
440.0
 30
0.0
 11
265.0
 21
460.0
 31
0.0
  0
LINE
  8
L-ZISSEN
 10
265.0
 20
440.0
 30
0.0
 11
244.899889
 21
440.0
 31
0.0
  0
LINE
  8
L-ZISSEN
 10
460.0
 20
222.5
 30
0.0
 11
460.0
 21
220.5
 31
0.0
  0
LINE
  8
L-ZISSEN
 10
440.0
 20
222.5
 30
0.0
 11
440.0
 21
220.5
 31
0.0
  0
CIRCLE
  8
L-ZISSEN
 10
200.0
 20
450.0
 30
0.0
 40
5.7225
  0
CIRCLE
  8
L-ZISSEN
 10
252.308108
 20
466.995935
 30
0.0
 40
5.0
  0
CIRCLE
  8
L-ZISSEN
 10
252.308108
 20
433.004065
 30
0.0
 40
5.0
  0
ENDSEC
  0
EOF
