  0
SECTION
  2
HEADER
  9
$ACADVER
  1
AC1015
  9
$ACADMAINTVER
 70
    20
  9
$DWGCODEPAGE
  3
ANSI_932
  9
$INSBASE
 10
0.0
 20
0.0
 30
0.0
  9
$EXTMIN
 10
47.45164296113804
 20
15.0
 30
0.0
  9
$EXTMAX
 10
697.5
 20
420.0
 30
0.0
  9
$LIMMIN
 10
0.0
 20
0.0
  9
$LIMMAX
 10
12.0
 20
9.0
  9
$ORTHOMODE
 70
     0
  9
$REGENMODE
 70
     1
  9
$FILLMODE
 70
     1
  9
$QTEXTMODE
 70
     0
  9
$MIRRTEXT
 70
     1
  9
$LTSCALE
 40
1.0
  9
$ATTMODE
 70
     1
  9
$TEXTSIZE
 40
4.5
  9
$TRACEWID
 40
0.05
  9
$TEXTSTYLE
  7
STANDARD
  9
$CLAYER
  8
L-ZISSEN
  9
$CELTYPE
  6
ByLayer
  9
$CECOLOR
 62
   256
  9
$CELTSCALE
 40
1.0
  9
$DISPSILH
 70
     0
  9
$DIMSCALE
 40
1.0
  9
$DIMASZ
 40
2.0
  9
$DIMEXO
 40
1.0
  9
$DIMDLI
 40
0.38
  9
$DIMRND
 40
0.0
  9
$DIMDLE
 40
0.0
  9
$DIMEXE
 40
1.0
  9
$DIMTP
 40
0.0
  9
$DIMTM
 40
0.0
  9
$DIMTXT
 40
4.5
  9
$DIMCEN
 40
0.09
  9
$DIMTSZ
 40
0.0
  9
$DIMTOL
 70
     0
  9
$DIMLIM
 70
     0
  9
$DIMTIH
 70
     0
  9
$DIMTOH
 70
     0
  9
$DIMSE1
 70
     0
  9
$DIMSE2
 70
     0
  9
$DIMTAD
 70
     1
  9
$DIMZIN
 70
     0
  9
$DIMBLK
  1

  9
$DIMASO
 70
     1
  9
$DIMSHO
 70
     0
  9
$DIMPOST
  1

  9
$DIMAPOST
  1

  9
$DIMALT
 70
     0
  9
$DIMALTD
 70
     2
  9
$DIMALTF
 40
25.4
  9
$DIMLFAC
 40
1.0
  9
$DIMTOFL
 70
     1
  9
$DIMTVP
 40
0.0
  9
$DIMTIX
 70
     0
  9
$DIMSOXD
 70
     0
  9
$DIMSAH
 70
     0
  9
$DIMBLK1
  1

  9
$DIMBLK2
  1

  9
$DIMSTYLE
  2
Standard
  9
$DIMCLRD
 70
     0
  9
$DIMCLRE
 70
     0
  9
$DIMCLRT
 70
     0
  9
$DIMTFAC
 40
1.0
  9
$DIMGAP
 40
0.09
  9
$DIMJUST
 70
     0
  9
$DIMSD1
 70
     0
  9
$DIMSD2
 70
     0
  9
$DIMTOLJ
 70
     1
  9
$DIMTZIN
 70
     0
  9
$DIMALTZ
 70
     0
  9
$DIMALTTZ
 70
     0
  9
$DIMUPT
 70
     0
  9
$DIMDEC
 70
     4
  9
$DIMTDEC
 70
     4
  9
$DIMALTU
 70
     2
  9
$DIMALTTD
 70
     2
  9
$DIMTXSTY
  7
STANDARD
  9
$DIMAUNIT
 70
     0
  9
$DIMADEC
 70
     0
  9
$DIMALTRND
 40
0.0
  9
$DIMAZIN
 70
     0
  9
$DIMDSEP
 70
    46
  9
$DIMATFIT
 70
     3
  9
$DIMFRAC
 70
     0
  9
$DIMLDRBLK
  1

  9
$DIMLUNIT
 70
     2
  9
$DIMLWD
 70
    -2
  9
$DIMLWE
 70
    -2
  9
$DIMTMOVE
 70
     2
  9
$LUNITS
 70
     2
  9
$LUPREC
 70
     4
  9
$SKETCHINC
 40
0.1
  9
$FILLETRAD
 40
2.5
  9
$AUNITS
 70
     0
  9
$AUPREC
 70
     0
  9
$MENU
  1
acad
  9
$ELEVATION
 40
0.0
  9
$PELEVATION
 40
0.0
  9
$THICKNESS
 40
0.0
  9
$LIMCHECK
 70
     0
  9
$CHAMFERA
 40
0.0
  9
$CHAMFERB
 40
0.0
  9
$CHAMFERC
 40
0.0
  9
$CHAMFERD
 40
0.0
  9
$SKPOLY
 70
     0
  9
$TDCREATE
 40
2449238.569442592
  9
$TDUCREATE
 40
2449238.194442592
  9
$TDUPDATE
 40
2455368.043447627
  9
$TDUUPDATE
 40
2455367.668447627
  9
$TDINDWG
 40
0.0193227315
  9
$TDUSRTIMER
 40
0.0193227315
  9
$USRTIMER
 70
     1
  9
$ANGBASE
 50
0.0
  9
$ANGDIR
 70
     0
  9
$PDMODE
 70
     0
  9
$PDSIZE
 40
0.0
  9
$PLINEWID
 40
0.0
  9
$SPLFRAME
 70
     0
  9
$SPLINETYPE
 70
     6
  9
$SPLINESEGS
 70
     8
  9
$HANDSEED
  5
24C
  9
$SURFTAB1
 70
     6
  9
$SURFTAB2
 70
     6
  9
$SURFTYPE
 70
     6
  9
$SURFU
 70
     6
  9
$SURFV
 70
     6
  9
$UCSBASE
  2

  9
$UCSNAME
  2

  9
$UCSORG
 10
0.0
 20
0.0
 30
0.0
  9
$UCSXDIR
 10
1.0
 20
0.0
 30
0.0
  9
$UCSYDIR
 10
0.0
 20
1.0
 30
0.0
  9
$UCSORTHOREF
  2

  9
$UCSORTHOVIEW
 70
     0
  9
$UCSORGTOP
 10
0.0
 20
0.0
 30
0.0
  9
$UCSORGBOTTOM
 10
0.0
 20
0.0
 30
0.0
  9
$UCSORGLEFT
 10
0.0
 20
0.0
 30
0.0
  9
$UCSORGRIGHT
 10
0.0
 20
0.0
 30
0.0
  9
$UCSORGFRONT
 10
0.0
 20
0.0
 30
0.0
  9
$UCSORGBACK
 10
0.0
 20
0.0
 30
0.0
  9
$PUCSBASE
  2

  9
$PUCSNAME
  2

  9
$PUCSORG
 10
0.0
 20
0.0
 30
0.0
  9
$PUCSXDIR
 10
1.0
 20
0.0
 30
0.0
  9
$PUCSYDIR
 10
0.0
 20
1.0
 30
0.0
  9
$PUCSORTHOREF
  2

  9
$PUCSORTHOVIEW
 70
     0
  9
$PUCSORGTOP
 10
0.0
 20
0.0
 30
0.0
  9
$PUCSORGBOTTOM
 10
0.0
 20
0.0
 30
0.0
  9
$PUCSORGLEFT
 10
0.0
 20
0.0
 30
0.0
  9
$PUCSORGRIGHT
 10
0.0
 20
0.0
 30
0.0
  9
$PUCSORGFRONT
 10
0.0
 20
0.0
 30
0.0
  9
$PUCSORGBACK
 10
0.0
 20
0.0
 30
0.0
  9
$USERI1
 70
     0
  9
$USERI2
 70
     0
  9
$USERI3
 70
     0
  9
$USERI4
 70
     0
  9
$USERI5
 70
     0
  9
$USERR1
 40
0.0
  9
$USERR2
 40
0.0
  9
$USERR3
 40
0.0
  9
$USERR4
 40
0.0
  9
$USERR5
 40
0.0
  9
$WORLDVIEW
 70
     1
  9
$SHADEDGE
 70
     3
  9
$SHADEDIF
 70
    70
  9
$TILEMODE
 70
     1
  9
$MAXACTVP
 70
    48
  9
$PINSBASE
 10
0.0
 20
0.0
 30
0.0
  9
$PLIMCHECK
 70
     0
  9
$PEXTMIN
 10
1.000000000000000E+20
 20
1.000000000000000E+20
 30
1.000000000000000E+20
  9
$PEXTMAX
 10
-1.000000000000000E+20
 20
-1.000000000000000E+20
 30
-1.000000000000000E+20
  9
$PLIMMIN
 10
0.0
 20
0.0
  9
$PLIMMAX
 10
12.0
 20
9.0
  9
$UNITMODE
 70
     0
  9
$VISRETAIN
 70
     1
  9
$PLINEGEN
 70
     0
  9
$PSLTSCALE
 70
     0
  9
$TREEDEPTH
 70
  3020
  9
$CMLSTYLE
  2
Standard
  9
$CMLJUST
 70
     0
  9
$CMLSCALE
 40
1.0
  9
$PROXYGRAPHICS
 70
     1
  9
$MEASUREMENT
 70
     0
  9
$CELWEIGHT
370
    -1
  9
$ENDCAPS
280
     0
  9
$JOINSTYLE
280
     0
  9
$LWDISPLAY
290
     0
  9
$INSUNITS
 70
     0
  9
$HYPERLINKBASE
  1

  9
$STYLESHEET
  1

  9
$XEDIT
290
     1
  9
$CEPSNTYPE
380
     0
  9
$PSTYLEMODE
290
     1
  9
$FINGERPRINTGUID
  2
{D713E871-7123-4B33-A543-8AF2376786D8}
  9
$VERSIONGUID
  2
{9373C5C5-DB11-4295-BCCB-1B8E93A092A2}
  9
$EXTNAMES
290
     1
  9
$PSVPSCALE
 40
0.0
  9
$OLESTARTUP
290
     0
  0
ENDSEC
  0
SECTION
  2
CLASSES
  0
CLASS
  1
ACDBDICTIONARYWDFLT
  2
AcDbDictionaryWithDefault
  3
ObjectDBX Classes
 90
        0
280
     0
281
     0
  0
CLASS
  1
ACDBPLACEHOLDER
  2
AcDbPlaceHolder
  3
ObjectDBX Classes
 90
        0
280
     0
281
     0
  0
CLASS
  1
LAYOUT
  2
AcDbLayout
  3
ObjectDBX Classes
 90
        0
280
     0
281
     0
  0
CLASS
  1
TABLESTYLE
  2
AcDbTableStyle
  3
ObjectDBX Classes
 90
     2047
280
     0
281
     0
  0
CLASS
  1
DICTIONARYVAR
  2
AcDbDictionaryVar
  3
ObjectDBX Classes
 90
        0
280
     0
281
     0
  0
ENDSEC
  0
SECTION
  2
TABLES
  0
TABLE
  2
VPORT
  5
8
330
0
100
AcDbSymbolTable
 70
     2
  0
VPORT
  5
246
330
8
100
AcDbSymbolTableRecord
100
AcDbViewportTableRecord
  2
*Active
 70
     0
 10
0.0
 20
0.0
 11
1.0
 21
1.0
 12
478.4757682435024
 22
217.4981699319303
 13
0.0
 23
0.0
 14
1.0
 24
1.0
 15
0.0
 25
0.0
 16
0.0
 26
0.0
 36
1.0
 17
0.0
 27
0.0
 37
0.0
 40
468.1093797016835
 41
1.849425287356321
 42
50.0
 43
0.0
 44
0.0
 50
0.0
 51
0.0
 71
     0
 72
   100
 73
     1
 74
     0
 75
     0
 76
     0
 77
     0
 78
     0
281
     0
 65
     1
110
0.0
120
0.0
130
0.0
111
1.0
121
0.0
131
0.0
112
0.0
122
1.0
132
0.0
 79
     0
146
0.0
  0
ENDTAB
  0
TABLE
  2
LTYPE
  5
5
330
0
100
AcDbSymbolTable
 70
     2
  0
LTYPE
  5
13
330
5
100
AcDbSymbolTableRecord
100
AcDbLinetypeTableRecord
  2
ByBlock
 70
     0
  3

 72
    65
 73
     0
 40
0.0
  0
LTYPE
  5
14
330
5
100
AcDbSymbolTableRecord
100
AcDbLinetypeTableRecord
  2
ByLayer
 70
     0
  3

 72
    65
 73
     0
 40
0.0
  0
LTYPE
  5
15
330
5
100
AcDbSymbolTableRecord
100
AcDbLinetypeTableRecord
  2
CONTINUOUS
 70
     0
  3
Solid line
 72
    65
 73
     0
 40
0.0
  0
LTYPE
  5
22
330
5
100
AcDbSymbolTableRecord
100
AcDbLinetypeTableRecord
  2
CENTER
 70
     0
  3
____ _ ____ _ ____
 72
    65
 73
     4
 40
8.0
 49
5.0
 74
     0
 49
-1.0
 74
     0
 49
1.0
 74
     0
 49
-1.0
 74
     0
  0
ENDTAB
  0
TABLE
  2
LAYER
  5
2
330
0
100
AcDbSymbolTable
 70
     4
  0
LAYER
  5
10
330
2
100
AcDbSymbolTableRecord
100
AcDbLayerTableRecord
  2
0
 70
     0
 62
     7
  6
CONTINUOUS
370
    -3
390
F
  0
LAYER
  5
23
330
2
100
AcDbSymbolTableRecord
100
AcDbLayerTableRecord
  2
L-ZISSEN
 70
     0
 62
     7
  6
CONTINUOUS
370
    -3
390
F
  0
LAYER
  5
24
330
2
100
AcDbSymbolTableRecord
100
AcDbLayerTableRecord
  2
L-TYUSIN
 70
     0
 62
     1
  6
CENTER
370
    -3
390
F
  0
LAYER
  5
13D
330
2
100
AcDbSymbolTableRecord
100
AcDbLayerTableRecord
  2
Defpoints
 70
     0
 62
     7
  6
CONTINUOUS
290
     0
370
    -3
390
F
  0
ENDTAB
  0
TABLE
  2
STYLE
  5
3
330
0
100
AcDbSymbolTable
 70
     1
  0
STYLE
  5
11
330
3
100
AcDbSymbolTableRecord
100
AcDbTextStyleTableRecord
  2
STANDARD
 70
     0
 40
0.0
 41
1.0
 50
0.0
 71
     0
 42
4.5
  3
txt
  4

  0
ENDTAB
  0
TABLE
  2
VIEW
  5
6
330
0
100
AcDbSymbolTable
 70
     0
  0
ENDTAB
  0
TABLE
  2
UCS
  5
7
330
0
100
AcDbSymbolTable
 70
     0
  0
ENDTAB
  0
TABLE
  2
APPID
  5
9
330
0
100
AcDbSymbolTable
 70
     1
  0
APPID
  5
12
330
9
100
AcDbSymbolTableRecord
100
AcDbRegAppTableRecord
  2
ACAD
 70
     0
  0
ENDTAB
  0
TABLE
  2
DIMSTYLE
  5
A
330
0
100
AcDbSymbolTable
 70
     1
100
AcDbDimStyleTable
 71
     0
  0
DIMSTYLE
105
128
330
A
100
AcDbSymbolTableRecord
100
AcDbDimStyleTableRecord
  2
Standard
 70
     0
340
11
  0
ENDTAB
  0
TABLE
  2
BLOCK_RECORD
  5
1
330
0
100
AcDbSymbolTable
 70
     1
  0
BLOCK_RECORD
  5
1E
102
{ACAD_XDICTIONARY
360
206
102
}
330
1
100
AcDbSymbolTableRecord
100
AcDbBlockTableRecord
  2
*Model_Space
340
21
  0
BLOCK_RECORD
  5
1A
102
{ACAD_XDICTIONARY
360
208
102
}
330
1
100
AcDbSymbolTableRecord
100
AcDbBlockTableRecord
  2
*Paper_Space
340
1D
  0
ENDTAB
  0
ENDSEC
  0
SECTION
  2
BLOCKS
  0
BLOCK
  5
27
330
1E
100
AcDbEntity
  8
0
100
AcDbBlockBegin
  2
*Model_Space
 70
     0
 10
0.0
 20
0.0
 30
0.0
  3
*Model_Space
  1

  0
ENDBLK
  5
28
330
1E
100
AcDbEntity
  8
0
100
AcDbBlockEnd
  0
BLOCK
  5
25
330
1A
100
AcDbEntity
 67
     1
  8
0
100
AcDbBlockBegin
  2
*Paper_Space
 70
     0
 10
0.0
 20
0.0
 30
0.0
  3
*Paper_Space
  1

  0
ENDBLK
  5
26
330
1A
100
AcDbEntity
 67
     1
  8
0
100
AcDbBlockEnd
  0
ENDSEC
  0
SECTION
  2
ENTITIES
  0
TEXT
  5
2A
330
1E
100
AcDbEntity
  8
L-ZISSEN
100
AcDbText
 10
47.45164296113804
 20
52.83681704378228
 30
0.0
 40
4.5
  1
Rc1/2
100
AcDbText
  0
TEXT
  5
2C
330
1E
100
AcDbEntity
  8
L-ZISSEN
100
AcDbText
 10
52.71096694199602
 20
59.90244170427946
 30
0.0
 40
4.5
  1
IN
100
AcDbText
  0
LINE
  5
2D
330
1E
100
AcDbEntity
  8
L-ZISSEN
100
AcDbLine
 10
62.71096694199602
 20
62.15244170427946
 30
0.0
 11
60.71096694199603
 21
62.15244170427946
 31
0.0
  0
LINE
  5
2E
330
1E
100
AcDbEntity
  8
L-ZISSEN
100
AcDbLine
 10
78.60844233064009
 20
78.56348781667346
 30
0.0
 11
62.71096694199602
 21
62.15244170427946
 31
0.0
  0
SOLID
  5
2F
330
1E
100
AcDbEntity
  8
L-ZISSEN
100
AcDbTrace
 10
78.36902363341899
 20
78.79541409490011
 30
0.0
 11
78.84786102786117
 21
78.3315615384468
 31
0.0
 12
80.0
 22
80.0
 32
0.0
 13
80.0
 23
80.0
 33
0.0
  0
CIRCLE
  5
30
330
1E
100
AcDbEntity
  8
L-ZISSEN
100
AcDbCircle
 10
89.49999999999997
 20
240.0
 30
0.0
 40
5.7225
  0
CIRCLE
  5
31
330
1E
100
AcDbEntity
  8
L-ZISSEN
100
AcDbCircle
 10
122.4999999999999
 20
240.0
 30
0.0
 40
5.7225
  0
CIRCLE
  5
32
330
1E
100
AcDbEntity
  8
L-ZISSEN
100
AcDbCircle
 10
122.4999999999999
 20
80.0
 30
0.0
 40
4.283
  0
CIRCLE
  5
33
330
1E
100
AcDbEntity
  8
L-ZISSEN
100
AcDbCircle
 10
242.5000000000001
 20
80.0
 30
0.0
 40
9.3155
  0
TEXT
  5
34
330
1E
100
AcDbEntity
  8
L-ZISSEN
100
AcDbText
 10
165.5
 20
137.75
 30
0.0
 40
4.5
  1
P.P
100
AcDbText
  0
LINE
  5
35
330
1E
100
AcDbEntity
  8
L-ZISSEN
100
AcDbLine
 10
157.5
 20
140.0
 30
0.0
 11
161.5
 21
140.0
 31
0.0
  0
LINE
  5
36
330
1E
100
AcDbEntity
  8
L-ZISSEN
100
AcDbLine
 10
125.6452733552897
 20
114.9712862077276
 30
0.0
 11
157.5
 21
140.0
 31
0.0
  0
SOLID
  5
37
330
1E
100
AcDbEntity
  8
L-ZISSEN
100
AcDbTrace
 10
126.0571543899109
 20
114.447073981846
 30
0.0
 11
125.2333923206684
 21
115.4954984336092
 31
0.0
 12
122.5
 22
112.5
 32
0.0
 13
122.5
 23
112.5
 33
0.0
  0
TEXT
  5
38
330
1E
100
AcDbEntity
  8
L-ZISSEN
100
AcDbText
 10
170.5
 20
282.75
 30
0.0
 40
4.5
  1
P.P
100
AcDbText
  0
LINE
  5
39
330
1E
100
AcDbEntity
  8
L-ZISSEN
100
AcDbLine
 10
162.5
 20
285.0
 30
0.0
 11
166.5
 21
285.0
 31
0.0
  0
LINE
  5
3A
330
1E
100
AcDbEntity
  8
L-ZISSEN
100
AcDbLine
 10
125.1574553553196
 20
242.9896372747347
 30
0.0
 11
162.5
 21
285.0
 31
0.0
  0
SOLID
  5
3B
330
1E
100
AcDbEntity
  8
L-ZISSEN
100
AcDbTrace
 10
125.6557282344421
 20
242.546728048848
 30
0.0
 11
124.6591824761972
 21
243.4325465006212
 31
0.0
 12
122.4999999999999
 22
240.0
 32
0.0
 13
122.4999999999999
 23
240.0
 33
0.0
  0
LINE
  5
3C
330
1E
100
AcDbEntity
  8
L-TYUSIN
100
AcDbLine
 10
89.49999999999999
 20
105.7852484567065
 30
0.0
 11
89.49999999999999
 21
130.6818907092561
 31
0.0
  0
LINE
  5
3D
330
1E
100
AcDbEntity
  8
L-TYUSIN
100
AcDbLine
 10
89.49999999999999
 20
227.5516788737252
 30
0.0
 11
89.49999999999999
 21
252.4483211262748
 31
0.0
  0
LINE
  5
3E
330
1E
100
AcDbEntity
  8
L-ZISSEN
  6
Continuous
 62
     7
100
AcDbLine
 10
79.99999999999994
 20
252.5121896648009
 30
0.0
 11
79.99999999999994
 21
254.5
 31
0.0
  0
ARC
  5
3F
330
1E
100
AcDbEntity
  8
L-ZISSEN
100
AcDbCircle
 10
85.35164875798651
 20
248.0
 30
0.0
 40
7.0
100
AcDbArc
 50
23.22287536694982
 51
211.5945681744017
  0
CIRCLE
  5
40
330
1E
100
AcDbEntity
  8
L-ZISSEN
100
AcDbCircle
 10
89.49999999999999
 20
240.0
 30
0.0
 40
11.0
  0
ARC
  5
41
330
1E
100
AcDbEntity
  8
L-ZISSEN
100
AcDbCircle
 10
122.4999999999999
 20
240.0
 30
0.0
 40
25.24166975080226
100
AcDbArc
 50
195.5280896151016
 51
164.4719103848983
  0
CIRCLE
  5
42
330
1E
100
AcDbEntity
  8
L-ZISSEN
100
AcDbCircle
 10
122.4999999999999
 20
240.0
 30
0.0
 40
11.0
  0
ARC
  5
43
330
1E
100
AcDbEntity
  8
L-ZISSEN
100
AcDbCircle
 10
122.4999999999999
 20
240.0
 30
0.0
 40
31.0
100
AcDbArc
 50
199.4701535839685
 51
160.5298464160315
  0
LINE
  5
44
330
1E
100
AcDbEntity
  8
L-ZISSEN
100
AcDbLine
 10
268.5
 20
139.7999999999998
 30
0.0
 11
272.5
 21
139.7999999999998
 31
0.0
  0
TEXT
  5
45
330
1E
100
AcDbEntity
  8
L-ZISSEN
100
AcDbText
 10
276.5
 20
137.5499999999998
 30
0.0
 40
4.5
  1
P.P
100
AcDbText
  0
LINE
  5
46
330
1E
100
AcDbEntity
  8
L-ZISSEN
100
AcDbLine
 10
245.2586206896553
 20
115.3965517241378
 30
0.0
 11
268.5
 21
139.7999999999998
 31
0.0
  0
LINE
  5
47
330
1E
100
AcDbEntity
  8
L-ZISSEN
100
AcDbLine
 10
201.0000000000001
 20
106.0
 30
0.0
 11
284.0
 21
106.0
 31
0.0
  0
LINE
  5
48
330
1E
100
AcDbEntity
  8
L-ZISSEN
100
AcDbLine
 10
201.0000000000001
 20
104.8
 30
0.0
 11
284.0
 21
104.8
 31
0.0
  0
LINE
  5
49
330
1E
100
AcDbEntity
  8
L-ZISSEN
100
AcDbLine
 10
210.4999999999997
 20
115.0980762113531
 30
0.0
 11
217.2583302491978
 21
119.0
 31
0.0
  0
LINE
  5
4A
330
1E
100
AcDbEntity
  8
L-ZISSEN
100
AcDbLine
 10
253.5000000000001
 20
126.0
 30
0.0
 11
253.5000000000001
 21
119.0
 31
0.0
  0
LINE
  5
4B
330
1E
100
AcDbEntity
  8
L-ZISSEN
100
AcDbLine
 10
231.5000000000001
 20
126.0
 30
0.0
 11
231.5000000000001
 21
119.0
 31
0.0
  0
LINE
  5
4C
330
1E
100
AcDbEntity
  8
L-ZISSEN
100
AcDbLine
 10
253.5000000000001
 20
126.0
 30
0.0
 11
231.5000000000001
 21
126.0
 31
0.0
  0
LINE
  5
4D
330
1E
100
AcDbEntity
  8
L-ZISSEN
100
AcDbLine
 10
274.5000000000006
 20
115.0980762113531
 30
0.0
 11
267.7416697508024
 21
119.0
 31
0.0
  0
LINE
  5
4E
330
1E
100
AcDbEntity
  8
L-ZISSEN
100
AcDbLine
 10
267.7416697508024
 20
119.0
 30
0.0
 11
217.2583302491978
 21
119.0
 31
0.0
  0
LINE
  5
4F
330
1E
100
AcDbEntity
  8
L-ZISSEN
100
AcDbLine
 10
100.5
 20
126.0
 30
0.0
 11
78.50000000000003
 21
126.0
 31
0.0
  0
LINE
  5
50
330
1E
100
AcDbEntity
  8
L-ZISSEN
100
AcDbLine
 10
100.5
 20
126.0
 30
0.0
 11
100.5
 21
119.0
 31
0.0
  0
LINE
  5
51
330
1E
100
AcDbEntity
  8
L-ZISSEN
100
AcDbLine
 10
78.50000000000001
 20
126.0
 30
0.0
 11
78.5
 21
106.0
 31
0.0
  0
LINE
  5
52
330
1E
100
AcDbEntity
  8
L-ZISSEN
100
AcDbLine
 10
111.5
 20
126.0
 30
0.0
 11
111.5
 21
119.0
 31
0.0
  0
LINE
  5
53
330
1E
100
AcDbEntity
  8
L-ZISSEN
100
AcDbLine
 10
133.5
 20
126.0
 30
0.0
 11
111.5
 21
126.0
 31
0.0
  0
LINE
  5
54
330
1E
100
AcDbEntity
  8
L-ZISSEN
100
AcDbLine
 10
133.5
 20
126.0
 30
0.0
 11
133.5
 21
119.0
 31
0.0
  0
LINE
  5
55
330
1E
100
AcDbEntity
  8
L-ZISSEN
100
AcDbLine
 10
151.0325662851839
 20
117.0999999999996
 30
0.0
 11
147.7416697508022
 21
119.0
 31
0.0
  0
LINE
  5
56
330
1E
100
AcDbEntity
  8
L-ZISSEN
100
AcDbLine
 10
147.7416697508022
 20
119.0
 30
0.0
 11
97.25833024919774
 21
119.0
 31
0.0
  0
LINE
  5
57
330
1E
100
AcDbEntity
  8
L-ZISSEN
100
AcDbLine
 10
93.96743371481598
 20
117.0999999999995
 30
0.0
 11
97.25833024919774
 21
119.0
 31
0.0
  0
LINE
  5
58
330
1E
100
AcDbEntity
  8
L-ZISSEN
  6
Continuous
 62
     7
100
AcDbLine
 10
80.99999999999988
 20
104.8
 30
0.0
 11
163.9999999999998
 21
104.8
 31
0.0
  0
LINE
  5
59
330
1E
100
AcDbEntity
  8
L-ZISSEN
  6
Continuous
 62
     7
100
AcDbLine
 10
78.5
 20
106.0
 30
0.0
 11
163.9999999999998
 21
106.0
 31
0.0
  0
LINE
  5
5A
330
1E
100
AcDbEntity
  8
L-ZISSEN
100
AcDbLine
 10
549.364
 20
379.0
 30
0.0
 11
549.3639999999999
 21
367.5582662084705
 31
0.0
  0
LINE
  5
5B
330
1E
100
AcDbEntity
  8
L-ZISSEN
100
AcDbLine
 10
539.636
 20
379.0
 30
0.0
 11
539.6359999999999
 21
367.558266208471
 31
0.0
  0
LINE
  5
5C
330
1E
100
AcDbEntity
  8
L-ZISSEN
100
AcDbLine
 10
652.5
 20
279.864
 30
0.0
 11
641.5
 21
279.864
 31
0.0
  0
LINE
  5
5D
330
1E
100
AcDbEntity
  8
L-ZISSEN
100
AcDbLine
 10
652.5
 20
270.136
 30
0.0
 11
641.5
 21
270.1360000000001
 31
0.0
  0
LINE
  5
5E
330
1E
100
AcDbEntity
  8
L-ZISSEN
  6
Continuous
 62
     7
100
AcDbLine
 10
641.5
 20
266.4999999999999
 30
0.0
 11
587.5
 21
266.5
 31
0.0
  0
LINE
  5
5F
330
1E
100
AcDbEntity
  8
L-ZISSEN
  6
Continuous
 62
     7
100
AcDbLine
 10
587.5
 20
289.9999999999999
 30
0.0
 11
587.5
 21
266.5
 31
0.0
  0
LINE
  5
60
330
1E
100
AcDbEntity
  8
L-ZISSEN
  6
Continuous
 62
     7
100
AcDbLine
 10
587.5
 20
289.9999999999999
 30
0.0
 11
641.5
 21
290.0
 31
0.0
  0
LINE
  5
61
330
1E
100
AcDbEntity
  8
L-ZISSEN
  6
Continuous
 62
     7
100
AcDbLine
 10
641.5
 20
289.9999999999999
 30
0.0
 11
641.5
 21
266.4999999999999
 31
0.0
  0
LINE
  5
62
330
1E
100
AcDbEntity
  8
L-ZISSEN
100
AcDbLine
 10
537.4289321881331
 20
333.928932188133
 30
0.0
 11
558.6421356237307
 21
355.1421356237307
 31
0.0
  0
LINE
  5
63
330
1E
100
AcDbEntity
  8
L-ZISSEN
100
AcDbLine
 10
379.5710678118669
 20
302.0710678118669
 30
0.0
 11
358.3578643762692
 21
280.8578643762692
 31
0.0
  0
LINE
  5
64
330
1E
100
AcDbEntity
  8
L-ZISSEN
100
AcDbLine
 10
452.5
 20
290.136
 30
0.0
 11
441.0000000000002
 21
290.1360000000001
 31
0.0
  0
LINE
  5
65
330
1E
100
AcDbEntity
  8
L-ZISSEN
100
AcDbLine
 10
452.5
 20
299.864
 30
0.0
 11
441.0000000000002
 21
299.864
 31
0.0
  0
LINE
  5
68
330
1E
100
AcDbEntity
  8
L-TYUSIN
100
AcDbLine
 10
467.4999999999999
 20
415.0
 30
0.0
 11
467.4999999999999
 21
255.0
 31
0.0
  0
LINE
  5
69
330
1E
100
AcDbEntity
  8
L-TYUSIN
100
AcDbLine
 10
312.5
 20
255.0
 30
0.0
 11
697.5
 21
255.0
 31
0.0
  0
TEXT
  5
6A
330
1E
100
AcDbEntity
  8
L-ZISSEN
100
AcDbText
 10
307.5
 20
210.0
 30
0.0
 40
4.5
  1
BRACKET
100
AcDbText
  0
TEXT
  5
6B
330
1E
100
AcDbEntity
  8
L-ZISSEN
100
AcDbText
 10
482.5
 20
395.0
 30
0.0
 40
4.5
  1
Q TYPE GAUZE
100
AcDbText
  0
TEXT
  5
6C
330
1E
100
AcDbEntity
  8
L-ZISSEN
100
AcDbText
 10
307.5
 20
395.0
 30
0.0
 40
4.5
  1
T TYPE GAUZE
100
AcDbText
  0
SOLID
  5
71
330
1E
100
AcDbEntity
  8
L-ZISSEN
100
AcDbTrace
 10
245.741379310345
 20
114.9367816091952
 30
0.0
 11
244.7758620689657
 21
115.8563218390803
 31
0.0
 12
242.5000000000002
 22
112.4999999999998
 32
0.0
 13
242.5000000000002
 23
112.4999999999998
 33
0.0
  0
SOLID
  5
72
330
1E
100
AcDbEntity
  8
L-ZISSEN
100
AcDbTrace
 10
548.2188795838903
 20
377.3830958330911
 30
0.0
 11
548.5422604172722
 21
378.6766191666182
 31
0.0
 12
544.5
 22
379.0
 32
0.0
 13
544.5
 23
379.0
 33
0.0
  0
LINE
  5
73
330
1E
100
AcDbEntity
  8
L-ZISSEN
100
AcDbLine
 10
548.3805700005813
 20
378.0298574998547
 30
0.0
 11
572.5
 21
372.0
 31
0.0
  0
LINE
  5
74
330
1E
100
AcDbEntity
  8
L-ZISSEN
100
AcDbLine
 10
572.5
 20
372.0
 30
0.0
 11
576.4999999999999
 21
372.0
 31
0.0
  0
TEXT
  5
75
330
1E
100
AcDbEntity
  8
L-ZISSEN
100
AcDbText
 10
580.4999999999999
 20
369.75
 30
0.0
 40
4.5
  1
P.P
100
AcDbText
  0
CIRCLE
  5
76
330
1E
100
AcDbEntity
  8
L-ZISSEN
100
AcDbCircle
 10
544.5
 20
341.0
 30
0.0
 40
26.99999999999994
  0
SOLID
  5
77
330
1E
100
AcDbEntity
  8
L-ZISSEN
100
AcDbTrace
 10
541.2009941339245
 20
277.3581782672316
 30
0.0
 11
540.6145042021777
 21
276.1607613232487
 31
0.0
 12
544.5
 22
274.9999999999999
 32
0.0
 13
544.5
 23
274.9999999999999
 33
0.0
  0
LINE
  5
78
330
1E
100
AcDbEntity
  8
L-ZISSEN
100
AcDbLine
 10
540.9077491680512
 20
276.7594697952401
 30
0.0
 11
495.5
 21
298.9999999999999
 31
0.0
  0
LINE
  5
79
330
1E
100
AcDbEntity
  8
L-ZISSEN
100
AcDbLine
 10
495.5
 20
298.9999999999999
 30
0.0
 11
492.4999999999999
 21
298.9999999999999
 31
0.0
  0
TEXT
  5
7A
330
1E
100
AcDbEntity
  8
L-ZISSEN
100
AcDbText
 10
478.8571428571429
 20
296.7499999999999
 30
0.0
 40
4.5
  1
P.P
100
AcDbText
  0
LINE
  5
7B
330
1E
100
AcDbEntity
  8
L-ZISSEN
  6
Continuous
 62
     7
100
AcDbLine
 10
571.4999999999999
 20
289.9999999999999
 30
0.0
 11
571.4999999999999
 21
266.4999999999999
 31
0.0
  0
LINE
  5
7C
330
1E
100
AcDbEntity
  8
L-ZISSEN
  6
Continuous
 62
     7
100
AcDbLine
 10
571.4999999999999
 20
266.4999999999999
 30
0.0
 11
517.4999999999999
 21
266.5
 31
0.0
  0
LINE
  5
7D
330
1E
100
AcDbEntity
  8
L-ZISSEN
  6
Continuous
 62
     7
100
AcDbLine
 10
517.4999999999999
 20
289.9999999999999
 30
0.0
 11
517.4999999999999
 21
266.5
 31
0.0
  0
LINE
  5
7E
330
1E
100
AcDbEntity
  8
L-ZISSEN
  6
Continuous
 62
     7
100
AcDbLine
 10
517.4999999999999
 20
289.9999999999999
 30
0.0
 11
571.4999999999999
 21
290.0
 31
0.0
  0
TEXT
  5
7F
330
1E
100
AcDbEntity
  8
L-ZISSEN
100
AcDbText
 10
307.5
 20
410.0
 30
0.0
 40
4.5
  1
OPTION
100
AcDbText
  0
LINE
  5
80
330
1E
100
AcDbEntity
  8
L-TYUSIN
100
AcDbLine
 10
302.5
 20
420.0
 30
0.0
 11
302.5
 21
15.0
 31
0.0
  0
TEXT
  5
81
330
1E
100
AcDbEntity
  8
L-ZISSEN
100
AcDbText
 10
306.8571428571428
 20
316.75
 30
0.0
 40
4.5
  1
P.P
100
AcDbText
  0
LINE
  5
82
330
1E
100
AcDbEntity
  8
L-ZISSEN
100
AcDbLine
 10
323.5
 20
319.0
 30
0.0
 11
320.5
 21
319.0
 31
0.0
  0
SOLID
  5
83
330
1E
100
AcDbEntity
  8
L-ZISSEN
100
AcDbTrace
 10
369.2009941339245
 20
297.3581782672317
 30
0.0
 11
368.6145042021777
 21
296.1607613232488
 31
0.0
 12
372.5
 22
295.0
 32
0.0
 13
372.5
 23
295.0
 33
0.0
  0
LINE
  5
84
330
1E
100
AcDbEntity
  8
L-ZISSEN
100
AcDbLine
 10
368.9077491680512
 20
296.7594697952403
 30
0.0
 11
323.5
 21
319.0
 31
0.0
  0
CIRCLE
  5
85
330
1E
100
AcDbEntity
  8
L-ZISSEN
100
AcDbCircle
 10
372.5
 20
295.0
 30
0.0
 40
26.99999999999994
  0
TEXT
  5
86
330
1E
100
AcDbEntity
  8
L-ZISSEN
100
AcDbText
 10
158.5
 20
189.75
 30
0.0
 40
4.5
  1
P.P
100
AcDbText
  0
LINE
  5
87
330
1E
100
AcDbEntity
  8
L-ZISSEN
100
AcDbLine
 10
150.5
 20
192.0
 30
0.0
 11
154.5
 21
192.0
 31
0.0
  0
LINE
  5
88
330
1E
100
AcDbEntity
  8
L-ZISSEN
100
AcDbLine
 10
126.3805700005813
 20
198.0298574998546
 30
0.0
 11
150.5
 21
192.0
 31
0.0
  0
SOLID
  5
89
330
1E
100
AcDbEntity
  8
L-ZISSEN
100
AcDbTrace
 10
126.2188795838904
 20
197.3830958330911
 30
0.0
 11
126.5422604172722
 21
198.6766191666182
 31
0.0
 12
122.5
 22
199.0
 32
0.0
 13
122.5
 23
199.0
 33
0.0
  0
TEXT
  5
8A
330
1E
100
AcDbEntity
  8
L-ZISSEN
100
AcDbText
 10
99.50000000000001
 20
390.0
 30
0.0
 40
4.5
  1
: NRV-504
100
AcDbText
  0
TEXT
  5
8B
330
1E
100
AcDbEntity
  8
L-ZISSEN
100
AcDbText
 10
57.5
 20
390.0
 30
0.0
 40
4.5
  1
MODEL No.
100
AcDbText
  0
TEXT
  5
92
330
1E
100
AcDbEntity
  8
L-ZISSEN
100
AcDbText
 10
624.8571428571429
 20
308.7499999999999
 30
0.0
 40
4.5
  1
P.P
100
AcDbText
  0
LINE
  5
93
330
1E
100
AcDbEntity
  8
L-ZISSEN
100
AcDbLine
 10
641.5
 20
310.9999999999999
 30
0.0
 11
638.4999999999999
 21
310.9999999999999
 31
0.0
  0
LINE
  5
94
330
1E
100
AcDbEntity
  8
L-ZISSEN
100
AcDbLine
 10
651.3311258576038
 20
278.8254062842053
 30
0.0
 11
641.5
 21
310.9999999999999
 31
0.0
  0
SOLID
  5
95
330
1E
100
AcDbEntity
  8
L-ZISSEN
100
AcDbTrace
 10
651.9686935716381
 20
279.0202186412713
 30
0.0
 11
650.6935581435697
 21
278.6305939271393
 31
0.0
 12
652.5
 22
275.0
 32
0.0
 13
652.5
 23
275.0
 33
0.0
  0
SOLID
  5
96
330
1E
100
AcDbEntity
  8
L-ZISSEN
100
AcDbTrace
 10
200.9686935716381
 20
84.02021864127139
 30
0.0
 11
199.6935581435696
 21
83.63059392713935
 31
0.0
 12
201.5
 22
80.00000000000001
 32
0.0
 13
201.5
 23
80.00000000000001
 33
0.0
  0
TEXT
  5
97
330
1E
100
AcDbEntity
  8
L-ZISSEN
100
AcDbText
 10
173.8571428571428
 20
113.75
 30
0.0
 40
4.5
  1
P.P
100
AcDbText
  0
LINE
  5
98
330
1E
100
AcDbEntity
  8
L-ZISSEN
100
AcDbLine
 10
190.4999999999999
 20
116.0
 30
0.0
 11
187.5
 21
116.0
 31
0.0
  0
LINE
  5
99
330
1E
100
AcDbEntity
  8
L-ZISSEN
100
AcDbLine
 10
200.3311258576039
 20
83.82540628420537
 30
0.0
 11
190.5
 21
116.0
 31
0.0
  0
TEXT
  5
9A
330
1E
100
AcDbEntity
  8
L-ZISSEN
100
AcDbText
 10
424.8571428571429
 20
328.75
 30
0.0
 40
4.5
  1
P.P
100
AcDbText
  0
LINE
  5
9B
330
1E
100
AcDbEntity
  8
L-ZISSEN
100
AcDbLine
 10
441.5
 20
331.0
 30
0.0
 11
438.4999999999999
 21
331.0
 31
0.0
  0
LINE
  5
9C
330
1E
100
AcDbEntity
  8
L-ZISSEN
100
AcDbLine
 10
451.3311258576038
 20
298.8254062842053
 30
0.0
 11
441.5
 21
331.0
 31
0.0
  0
SOLID
  5
9D
330
1E
100
AcDbEntity
  8
L-ZISSEN
100
AcDbTrace
 10
451.9686935716381
 20
299.0202186412714
 30
0.0
 11
450.6935581435697
 21
298.6305939271393
 31
0.0
 12
452.5
 22
295.0
 32
0.0
 13
452.5
 23
295.0
 33
0.0
  0
TEXT
  5
A2
330
1E
100
AcDbEntity
  8
L-ZISSEN
100
AcDbText
 10
56.85714285714283
 20
101.75
 30
0.0
 40
4.5
  1
P.P
100
AcDbText
  0
LINE
  5
A3
330
1E
100
AcDbEntity
  8
L-ZISSEN
100
AcDbLine
 10
73.5
 20
104.0
 30
0.0
 11
70.5
 21
104.0
 31
0.0
  0
LINE
  5
A4
330
1E
100
AcDbEntity
  8
L-ZISSEN
100
AcDbLine
 10
118.9077491680511
 20
81.75946979524026
 30
0.0
 11
73.5
 21
104.0
 31
0.0
  0
SOLID
  5
A5
330
1E
100
AcDbEntity
  8
L-ZISSEN
100
AcDbTrace
 10
119.2009941339245
 20
82.35817826723172
 30
0.0
 11
118.6145042021777
 21
81.16076132324877
 31
0.0
 12
122.4999999999999
 22
80.0
 32
0.0
 13
122.4999999999999
 23
80.0
 33
0.0
  0
LINE
  5
C1
330
1E
100
AcDbEntity
  8
L-TYUSIN
  6
CENTER
 62
     1
100
AcDbLine
 10
242.5000000000002
 20
132.2822855702932
 30
0.0
 11
242.5
 21
42.00000000000002
 31
0.0
  0
LINE
  5
C2
330
1E
100
AcDbEntity
  8
L-ZISSEN
  6
Continuous
 62
     7
100
AcDbLine
 10
201.0
 20
99.20000000000001
 30
0.0
 11
284.0
 21
99.20000000000001
 31
0.0
  0
LINE
  5
C3
330
1E
100
AcDbEntity
  8
L-ZISSEN
  6
Continuous
 62
     7
100
AcDbLine
 10
201.0
 20
98.00000000000006
 30
0.0
 11
201.0000000000001
 21
112.5
 31
0.0
  0
LINE
  5
C4
330
1E
100
AcDbEntity
  8
L-ZISSEN
  6
Continuous
 62
     7
100
AcDbLine
 10
284.0
 20
112.5000000000001
 30
0.0
 11
201.0
 21
112.5
 31
0.0
  0
LINE
  5
C5
330
1E
100
AcDbEntity
  8
L-ZISSEN
  6
Continuous
 62
     7
100
AcDbLine
 10
284.0
 20
98.00000000000006
 30
0.0
 11
284.0
 21
112.5000000000001
 31
0.0
  0
LINE
  5
C6
330
1E
100
AcDbEntity
  8
L-ZISSEN
  6
Continuous
 62
     7
100
AcDbLine
 10
201.0
 20
98.00000000000004
 30
0.0
 11
284.0
 21
98.00000000000004
 31
0.0
  0
LINE
  5
C7
330
1E
100
AcDbEntity
  8
L-TYUSIN
  6
CENTER
 62
     1
100
AcDbLine
 10
199.4999999999999
 20
80.0
 30
0.0
 11
285.5000000000003
 21
80.0
 31
0.0
  0
LINE
  5
C8
330
1E
100
AcDbEntity
  8
L-ZISSEN
  6
Continuous
 62
     7
100
AcDbLine
 10
222.5000000000001
 20
44.00000000000003
 30
0.0
 11
262.5
 21
44.00000000000003
 31
0.0
  0
LINE
  5
C9
330
1E
100
AcDbEntity
  8
L-ZISSEN
  6
Continuous
 62
     7
100
AcDbLine
 10
262.5
 20
44.0
 30
0.0
 11
262.5
 21
54.5
 31
0.0
  0
LINE
  5
CA
330
1E
100
AcDbEntity
  8
L-ZISSEN
  6
Continuous
 62
     7
100
AcDbLine
 10
222.5000000000001
 20
44.0
 30
0.0
 11
222.5000000000001
 21
54.5
 31
0.0
  0
LINE
  5
CB
330
1E
100
AcDbEntity
  8
L-ZISSEN
  6
Continuous
 62
     7
100
AcDbLine
 10
201.5000000000001
 20
70.49999999999934
 30
0.0
 11
221.5000000000001
 21
70.49999999999934
 31
0.0
  0
LINE
  5
CC
330
1E
100
AcDbEntity
  8
L-ZISSEN
  6
Continuous
 62
     7
100
AcDbLine
 10
228.0000000000002
 20
90.49999999999972
 30
0.0
 11
201.5
 21
90.49999999999972
 31
0.0
  0
LINE
  5
CD
330
1E
100
AcDbEntity
  8
L-ZISSEN
  6
Continuous
 62
     7
100
AcDbLine
 10
201.5
 20
98.00000000000006
 30
0.0
 11
201.5
 21
70.49999999999934
 31
0.0
  0
LINE
  5
CE
330
1E
100
AcDbEntity
  8
L-ZISSEN
  6
Continuous
 62
     7
100
AcDbLine
 10
257.0000000000002
 20
90.49999999999972
 30
0.0
 11
283.5000000000002
 21
90.49999999999972
 31
0.0
  0
LINE
  5
CF
330
1E
100
AcDbEntity
  8
L-ZISSEN
  6
Continuous
 62
     7
100
AcDbLine
 10
283.5000000000002
 20
98.00000000000006
 30
0.0
 11
283.5000000000002
 21
70.49999999999934
 31
0.0
  0
LINE
  5
D0
330
1E
100
AcDbEntity
  8
L-ZISSEN
  6
Continuous
 62
     7
100
AcDbLine
 10
257.0000000000002
 20
65.99999999999974
 30
0.0
 11
257.0000000000002
 21
98.00000000000004
 31
0.0
  0
LINE
  5
D1
330
1E
100
AcDbEntity
  8
L-ZISSEN
  6
Continuous
 62
     7
100
AcDbLine
 10
228.0
 20
65.99999999999972
 30
0.0
 11
228.0000000000002
 21
98.00000000000004
 31
0.0
  0
LINE
  5
D2
330
1E
100
AcDbEntity
  8
L-ZISSEN
  6
Continuous
 62
     7
100
AcDbLine
 10
221.4999999999998
 20
54.50000000000002
 30
0.0
 11
221.5000000000001
 21
70.49999999999934
 31
0.0
  0
LINE
  5
D3
330
1E
100
AcDbEntity
  8
L-ZISSEN
  6
Continuous
 62
     7
100
AcDbLine
 10
283.5000000000001
 20
70.49999999999934
 30
0.0
 11
263.5000000000002
 21
70.49999999999934
 31
0.0
  0
LINE
  5
D4
330
1E
100
AcDbEntity
  8
L-ZISSEN
  6
Continuous
 62
     7
100
AcDbLine
 10
263.5000000000003
 20
54.50000000000002
 30
0.0
 11
263.5000000000002
 21
70.49999999999937
 31
0.0
  0
LINE
  5
D5
330
1E
100
AcDbEntity
  8
L-ZISSEN
  6
Continuous
 62
     7
100
AcDbLine
 10
221.4999999999998
 20
54.50000000000002
 30
0.0
 11
263.5000000000003
 21
54.50000000000002
 31
0.0
  0
LINE
  5
D6
330
1E
100
AcDbEntity
  8
L-ZISSEN
100
AcDbLine
 10
201.5000000000009
 20
117.0999999999997
 30
0.0
 11
201.5000000000009
 21
112.5000000000001
 31
0.0
  0
LINE
  5
D7
330
1E
100
AcDbEntity
  8
L-ZISSEN
100
AcDbLine
 10
201.5000000000009
 20
117.0999999999996
 30
0.0
 11
210.4999999999997
 21
117.0999999999997
 31
0.0
  0
LINE
  5
D8
330
1E
100
AcDbEntity
  8
L-ZISSEN
100
AcDbLine
 10
210.4999999999997
 20
117.0999999999997
 30
0.0
 11
210.4999999999997
 21
112.5000000000001
 31
0.0
  0
LINE
  5
D9
330
1E
100
AcDbEntity
  8
L-ZISSEN
100
AcDbLine
 10
228.7499999999993
 20
117.0999999999997
 30
0.0
 11
228.7499999999993
 21
112.5000000000001
 31
0.0
  0
LINE
  5
DA
330
1E
100
AcDbEntity
  8
L-ZISSEN
100
AcDbLine
 10
219.7500000000004
 20
117.0999999999996
 30
0.0
 11
228.7499999999993
 21
117.0999999999997
 31
0.0
  0
LINE
  5
DB
330
1E
100
AcDbEntity
  8
L-ZISSEN
100
AcDbLine
 10
219.7500000000004
 20
117.0999999999997
 30
0.0
 11
219.7500000000004
 21
112.5000000000001
 31
0.0
  0
LINE
  5
DC
330
1E
100
AcDbEntity
  8
L-ZISSEN
100
AcDbLine
 10
256.250000000001
 20
117.0999999999997
 30
0.0
 11
256.250000000001
 21
112.5000000000001
 31
0.0
  0
LINE
  5
DD
330
1E
100
AcDbEntity
  8
L-ZISSEN
100
AcDbLine
 10
256.250000000001
 20
117.0999999999996
 30
0.0
 11
265.2499999999999
 21
117.0999999999997
 31
0.0
  0
LINE
  5
DE
330
1E
100
AcDbEntity
  8
L-ZISSEN
100
AcDbLine
 10
265.2499999999999
 20
117.0999999999997
 30
0.0
 11
265.2499999999999
 21
112.5000000000001
 31
0.0
  0
LINE
  5
DF
330
1E
100
AcDbEntity
  8
L-ZISSEN
100
AcDbLine
 10
274.5000000000006
 20
117.0999999999997
 30
0.0
 11
274.5000000000006
 21
112.5000000000001
 31
0.0
  0
LINE
  5
E0
330
1E
100
AcDbEntity
  8
L-ZISSEN
100
AcDbLine
 10
274.5000000000006
 20
117.0999999999996
 30
0.0
 11
283.4999999999994
 21
117.0999999999997
 31
0.0
  0
LINE
  5
E1
330
1E
100
AcDbEntity
  8
L-ZISSEN
100
AcDbLine
 10
283.4999999999994
 20
117.0999999999997
 30
0.0
 11
283.4999999999994
 21
112.5000000000001
 31
0.0
  0
LINE
  5
E2
330
1E
100
AcDbEntity
  8
L-ZISSEN
100
AcDbLine
 10
228.0
 20
65.99999999999972
 30
0.0
 11
257.0000000000002
 21
65.99999999999977
 31
0.0
  0
LINE
  5
F2
330
1E
100
AcDbEntity
  8
L-ZISSEN
100
AcDbLine
 10
86.39007276186783
 20
117.0999999999995
 30
0.0
 11
86.39007276186772
 21
112.4999999999999
 31
0.0
  0
LINE
  5
F3
330
1E
100
AcDbEntity
  8
L-ZISSEN
100
AcDbLine
 10
86.39007276186783
 20
117.0999999999994
 30
0.0
 11
95.39007276186669
 21
117.0999999999995
 31
0.0
  0
LINE
  5
F4
330
1E
100
AcDbEntity
  8
L-ZISSEN
100
AcDbLine
 10
95.39007276186657
 20
117.0999999999995
 30
0.0
 11
95.39007276186669
 21
112.4999999999999
 31
0.0
  0
LINE
  5
F5
330
1E
100
AcDbEntity
  8
L-ZISSEN
100
AcDbLine
 10
126.9999999999994
 20
117.0999999999996
 30
0.0
 11
126.9999999999994
 21
112.5
 31
0.0
  0
LINE
  5
F6
330
1E
100
AcDbEntity
  8
L-ZISSEN
100
AcDbLine
 10
118.0000000000005
 20
117.0999999999995
 30
0.0
 11
126.9999999999994
 21
117.0999999999996
 31
0.0
  0
LINE
  5
F7
330
1E
100
AcDbEntity
  8
L-ZISSEN
100
AcDbLine
 10
118.0000000000005
 20
117.0999999999996
 30
0.0
 11
118.0000000000005
 21
112.5
 31
0.0
  0
LINE
  5
F8
330
1E
100
AcDbEntity
  8
L-ZISSEN
100
AcDbLine
 10
149.6099272381334
 20
117.0999999999996
 30
0.0
 11
149.6099272381333
 21
112.5
 31
0.0
  0
LINE
  5
F9
330
1E
100
AcDbEntity
  8
L-ZISSEN
100
AcDbLine
 10
149.6099272381334
 20
117.0999999999995
 30
0.0
 11
158.6099272381322
 21
117.0999999999996
 31
0.0
  0
LINE
  5
FA
330
1E
100
AcDbEntity
  8
L-ZISSEN
  6
Continuous
 62
     7
100
AcDbLine
 10
80.0
 20
98.0
 30
0.0
 11
80.0
 21
66.0
 31
0.0
  0
LINE
  5
FB
330
1E
100
AcDbEntity
  8
L-ZISSEN
  6
Continuous
 62
     7
100
AcDbLine
 10
112.9999999999995
 20
90.5
 30
0.0
 11
112.9999999999995
 21
70.50000000000025
 31
0.0
  0
LINE
  5
FC
330
1E
100
AcDbEntity
  8
L-ZISSEN
100
AcDbLine
 10
112.9999999999995
 20
70.50000000000029
 30
0.0
 11
132.0000000000004
 21
70.50000000000025
 31
0.0
  0
LINE
  5
FD
330
1E
100
AcDbEntity
  8
L-ZISSEN
100
AcDbLine
 10
158.6099272381322
 20
117.0999999999996
 30
0.0
 11
158.6099272381322
 21
112.5
 31
0.0
  0
LINE
  5
FE
330
1E
100
AcDbEntity
  8
L-ZISSEN
  6
Continuous
 62
     7
100
AcDbLine
 10
164.9999999999999
 20
225.5
 30
0.0
 11
161.3171992425168
 21
225.3209318086351
 31
0.0
  0
LINE
  5
FF
330
1E
100
AcDbEntity
  8
L-ZISSEN
  6
Continuous
 62
     7
100
AcDbLine
 10
164.9999999999999
 20
225.5000000000001
 30
0.0
 11
164.9999999999999
 21
254.5
 31
0.0
  0
LINE
  5
100
330
1E
100
AcDbEntity
  8
L-ZISSEN
  6
Continuous
 62
     7
100
AcDbLine
 10
164.9999999999999
 20
254.5
 30
0.0
 11
161.3171992425168
 21
254.679068191365
 31
0.0
  0
LINE
  5
101
330
1E
100
AcDbEntity
  8
L-ZISSEN
  6
Continuous
 62
     7
100
AcDbLine
 10
79.99999999999994
 20
225.5
 30
0.0
 11
83.68280075748288
 21
225.3209318086351
 31
0.0
  0
LINE
  5
102
330
1E
100
AcDbEntity
  8
L-ZISSEN
  6
Continuous
 62
     7
100
AcDbLine
 10
79.99999999999994
 20
254.5
 30
0.0
 11
83.68280075748288
 21
254.679068191365
 31
0.0
  0
LINE
  5
103
330
1E
100
AcDbEntity
  8
L-ZISSEN
  6
Continuous
 62
     7
100
AcDbLine
 10
79.99999999999994
 20
225.5
 30
0.0
 11
79.99999999999994
 21
234.4547317467953
 31
0.0
  0
LINE
  5
104
330
1E
100
AcDbEntity
  8
L-TYUSIN
  6
CENTER
 62
     1
100
AcDbLine
 10
166.9999999999999
 20
80.0
 30
0.0
 11
78.0
 21
80.0
 31
0.0
  0
LINE
  5
105
330
1E
100
AcDbEntity
  8
L-ZISSEN
  6
Continuous
 62
     7
100
AcDbLine
 10
142.5
 20
44.0
 30
0.0
 11
142.5
 21
54.5
 31
0.0
  0
LINE
  5
106
330
1E
100
AcDbEntity
  8
L-ZISSEN
  6
Continuous
 62
     7
100
AcDbLine
 10
102.5000000000001
 20
44.0
 30
0.0
 11
142.4999999999999
 21
44.0
 31
0.0
  0
LINE
  5
107
330
1E
100
AcDbEntity
  8
L-ZISSEN
  6
Continuous
 62
     7
100
AcDbLine
 10
102.5
 20
44.0
 30
0.0
 11
102.5000000000001
 21
54.5
 31
0.0
  0
LINE
  5
108
330
1E
100
AcDbEntity
  8
L-ZISSEN
  6
Continuous
 62
     7
100
AcDbLine
 10
101.5
 20
54.5
 30
0.0
 11
143.5
 21
54.5
 31
0.0
  0
LINE
  5
109
330
1E
100
AcDbEntity
  8
L-ZISSEN
  6
Continuous
 62
     7
100
AcDbLine
 10
143.5
 20
54.5
 30
0.0
 11
143.5
 21
66.0
 31
0.0
  0
LINE
  5
10A
330
1E
100
AcDbEntity
  8
L-ZISSEN
  6
Continuous
 62
     7
100
AcDbLine
 10
164.9999999999999
 20
66.0
 30
0.0
 11
143.5
 21
66.0
 31
0.0
  0
LINE
  5
10B
330
1E
100
AcDbEntity
  8
L-ZISSEN
  6
Continuous
 62
     7
100
AcDbLine
 10
164.9999999999999
 20
98.0
 30
0.0
 11
164.9999999999999
 21
66.0
 31
0.0
  0
LINE
  5
10C
330
1E
100
AcDbEntity
  8
L-ZISSEN
  6
Continuous
 62
     7
100
AcDbLine
 10
132.0000000000004
 20
90.5
 30
0.0
 11
132.0000000000004
 21
70.50000000000025
 31
0.0
  0
LINE
  5
10D
330
1E
100
AcDbEntity
  8
L-ZISSEN
  6
Continuous
 62
     7
100
AcDbLine
 10
80.0
 20
66.0
 30
0.0
 11
101.5
 21
66.0
 31
0.0
  0
LINE
  5
10E
330
1E
100
AcDbEntity
  8
L-ZISSEN
  6
Continuous
 62
     7
100
AcDbLine
 10
101.5
 20
54.5
 30
0.0
 11
101.5
 21
66.0
 31
0.0
  0
LINE
  5
10F
330
1E
100
AcDbEntity
  8
L-ZISSEN
  6
Continuous
 62
     7
100
AcDbLine
 10
80.0
 20
90.5
 30
0.0
 11
164.9999999999999
 21
90.5
 31
0.0
  0
LINE
  5
110
330
1E
100
AcDbEntity
  8
L-ZISSEN
  6
Continuous
 62
     7
100
AcDbLine
 10
165.0000000000001
 20
98.0
 30
0.0
 11
80.0
 21
98.0
 31
0.0
  0
LINE
  5
111
330
1E
100
AcDbEntity
  8
L-TYUSIN
  6
CENTER
 62
     1
100
AcDbLine
 10
122.5
 20
196.5000000000001
 30
0.0
 11
122.4999999999999
 21
283.5
 31
0.0
  0
CIRCLE
  5
112
330
1E
100
AcDbEntity
  8
L-ZISSEN
  6
Continuous
 62
     7
100
AcDbCircle
 10
90.89007276186697
 20
221.7499999999994
 30
0.0
 40
4.5
  0
CIRCLE
  5
113
330
1E
100
AcDbEntity
  8
L-ZISSEN
  6
Continuous
 62
     7
100
AcDbCircle
 10
90.89007276186732
 20
258.2500000000004
 30
0.0
 40
4.5
  0
CIRCLE
  5
114
330
1E
100
AcDbEntity
  8
L-ZISSEN
  6
Continuous
 62
     7
100
AcDbCircle
 10
154.1099272381327
 20
221.7499999999994
 30
0.0
 40
4.5
  0
CIRCLE
  5
115
330
1E
100
AcDbEntity
  8
L-ZISSEN
  6
Continuous
 62
     7
100
AcDbCircle
 10
154.1099272381324
 20
258.2500000000004
 30
0.0
 40
4.5
  0
CIRCLE
  5
116
330
1E
100
AcDbEntity
  8
L-ZISSEN
  6
Continuous
 62
     7
100
AcDbCircle
 10
122.4999999999999
 20
203.5
 30
0.0
 40
4.5
  0
CIRCLE
  5
117
330
1E
100
AcDbEntity
  8
L-ZISSEN
  6
Continuous
 62
     7
100
AcDbCircle
 10
122.4999999999999
 20
276.5
 30
0.0
 40
4.5
  0
ARC
  5
118
330
1E
100
AcDbEntity
  8
L-ZISSEN
  6
Continuous
 62
     7
100
AcDbCircle
 10
122.4999999999998
 20
240.0
 30
0.0
 40
41.5
100
AcDbArc
 50
190.8261785248477
 51
159.0917641072994
  0
LINE
  5
119
330
1E
100
AcDbEntity
  8
L-TYUSIN
  6
CENTER
 62
     1
100
AcDbLine
 10
77.99999999999994
 20
240.0
 30
0.0
 11
166.9999999999999
 21
240.0
 31
0.0
  0
LINE
  5
11A
330
1E
100
AcDbEntity
  8
L-ZISSEN
  6
Continuous
 62
     7
100
AcDbLine
 10
417.5000000000002
 20
322.0
 30
0.0
 11
441.0000000000002
 21
322.0
 31
0.0
  0
LINE
  5
11B
330
1E
100
AcDbEntity
  8
L-ZISSEN
  6
Continuous
 62
     7
100
AcDbLine
 10
441.0000000000002
 20
322.0
 30
0.0
 11
441.0000000000002
 21
268.0
 31
0.0
  0
LINE
  5
121
330
1E
100
AcDbEntity
  8
L-ZISSEN
  6
Continuous
 62
     7
100
AcDbLine
 10
78.5
 20
112.5
 30
0.0
 11
163.9999999999999
 21
112.5
 31
0.0
  0
LINE
  5
122
330
1E
100
AcDbEntity
  8
L-ZISSEN
  6
Continuous
 62
     7
100
AcDbLine
 10
417.5000000000002
 20
268.0
 30
0.0
 11
441.0000000000002
 21
268.0
 31
0.0
  0
LINE
  5
123
330
1E
100
AcDbEntity
  8
L-ZISSEN
  6
Continuous
 62
     7
100
AcDbLine
 10
417.5000000000002
 20
268.0
 30
0.0
 11
417.4999999999999
 21
322.0
 31
0.0
  0
LINE
  5
124
330
1E
100
AcDbEntity
  8
L-ZISSEN
  6
Continuous
 62
     7
100
AcDbLine
 10
80.99999999999988
 20
99.20000000000005
 30
0.0
 11
163.9999999999998
 21
99.20000000000005
 31
0.0
  0
LINE
  5
125
330
1E
100
AcDbEntity
  8
L-ZISSEN
  6
Continuous
 62
     7
100
AcDbLine
 10
80.99999999999988
 20
98.0
 30
0.0
 11
80.99999999999988
 21
106.0
 31
0.0
  0
LINE
  5
126
330
1E
100
AcDbEntity
  8
L-ZISSEN
  6
Continuous
 62
     7
100
AcDbLine
 10
163.9999999999998
 20
98.0
 30
0.0
 11
163.9999999999998
 21
112.5
 31
0.0
  0
LINE
  5
127
330
1E
100
AcDbEntity
  8
L-TYUSIN
  6
CENTER
 62
     1
100
AcDbLine
 10
122.5
 20
132.2822855702932
 30
0.0
 11
122.5
 21
42.0
 31
0.0
  0
LINE
  5
174
330
1E
100
AcDbEntity
  8
L-ZISSEN
100
AcDbLine
 10
448.6985476273674
 20
219.9918776702173
 30
0.0
 11
358.6985476273675
 21
219.9918776702173
 31
0.0
  0
LINE
  5
175
330
1E
100
AcDbEntity
  8
L-ZISSEN
100
AcDbLine
 10
446.1985476273675
 20
217.4918776702174
 30
0.0
 11
361.1985476273675
 21
217.4918776702173
 31
0.0
  0
LINE
  5
176
330
1E
100
AcDbEntity
  8
L-ZISSEN
100
AcDbLine
 10
406.7752991812727
 20
157.435786929351
 30
0.0
 11
450.0097911671124
 21
121.5176171600729
 31
0.0
  0
LINE
  5
177
330
1E
100
AcDbEntity
  8
L-ZISSEN
100
AcDbLine
 10
446.1985476273675
 20
217.4918776702174
 30
0.0
 11
446.1985476273675
 21
145.9918776702173
 31
0.0
  0
LINE
  5
178
330
1E
100
AcDbEntity
  8
L-ZISSEN
100
AcDbLine
 10
448.6985476273674
 20
219.9918776702173
 30
0.0
 11
448.6985476273674
 21
145.9918776702173
 31
0.0
  0
LINE
  5
17B
330
1E
100
AcDbEntity
  8
L-ZISSEN
100
AcDbLine
 10
358.6985476273675
 20
219.9918776702173
 30
0.0
 11
358.6985476273675
 21
145.9918776702173
 31
0.0
  0
LINE
  5
17C
330
1E
100
AcDbEntity
  8
L-ZISSEN
100
AcDbLine
 10
361.1985476273675
 20
217.4918776702173
 30
0.0
 11
361.1985476273675
 21
145.9918776702173
 31
0.0
  0
LINE
  5
17D
330
1E
100
AcDbEntity
  8
L-ZISSEN
100
AcDbLine
 10
361.1985476273675
 20
145.9918776702173
 30
0.0
 11
358.6985476273675
 21
145.9918776702173
 31
0.0
  0
LINE
  5
17E
330
1E
100
AcDbEntity
  8
L-ZISSEN
100
AcDbLine
 10
448.6985476273674
 20
145.9918776702173
 30
0.0
 11
446.1985476273675
 21
145.9918776702173
 31
0.0
  0
SOLID
  5
17F
330
1E
100
AcDbEntity
  8
L-ZISSEN
100
AcDbTrace
 10
406.3492840577951
 20
156.9229950037002
 30
0.0
 11
407.2013143047504
 21
157.9485788550019
 31
0.0
 12
403.6985476273676
 22
159.9918776702172
 32
0.0
 13
403.6985476273676
 23
159.9918776702172
 33
0.0
  0
LINE
  5
181
330
1E
100
AcDbEntity
  8
L-ZISSEN
100
AcDbLine
 10
450.0097911671124
 20
121.5176171600729
 30
0.0
 11
454.0097911671124
 21
121.5176171600729
 31
0.0
  0
TEXT
  5
182
330
1E
100
AcDbEntity
  8
L-ZISSEN
100
AcDbText
 10
458.0097911671124
 20
119.2676171600729
 30
0.0
 40
4.5
  1
P.P
100
AcDbText
  0
LINE
  5
1DE
102
{ACAD_REACTORS
330
1F3
102
}
330
1E
100
AcDbEntity
  8
L-ZISSEN
100
AcDbLine
 10
446.1985476273675
 20
26.20487333769109
 30
0.0
 11
446.1985476273675
 21
89.20487333769107
 31
0.0
  0
LINE
  5
1DF
102
{ACAD_REACTORS
330
1F3
102
}
330
1E
100
AcDbEntity
  8
L-ZISSEN
100
AcDbLine
 10
358.6985476273675
 20
89.20487333769107
 30
0.0
 11
358.6985476273675
 21
26.20487333769109
 31
0.0
  0
LINE
  5
1E0
102
{ACAD_REACTORS
330
1F3
102
}
330
1E
100
AcDbEntity
  8
L-TYUSIN
  6
CENTER
 62
     1
100
AcDbLine
 10
394.6985476273676
 20
78.20487333769105
 30
0.0
 11
367.6985476273661
 21
78.20487333769105
 31
0.0
  0
LINE
  5
1E1
102
{ACAD_REACTORS
330
1F3
102
}
330
1E
100
AcDbEntity
  8
L-ZISSEN
100
AcDbLine
 10
361.1985476273675
 20
89.20487333769107
 30
0.0
 11
361.1985476273675
 21
86.20487333769114
 31
0.0
  0
LINE
  5
1E2
102
{ACAD_REACTORS
330
1F3
102
}
330
1E
100
AcDbEntity
  8
L-ZISSEN
100
AcDbLine
 10
381.6985476273675
 20
81.60487333769109
 30
0.0
 11
388.6985476273675
 21
81.60487333769109
 31
0.0
  0
LINE
  5
1E3
102
{ACAD_REACTORS
330
1F3
102
}
330
1E
100
AcDbEntity
  8
L-TYUSIN
  6
CENTER
 62
     1
100
AcDbLine
 10
381.1985476273676
 20
72.20487333769134
 30
0.0
 11
381.1985476273676
 21
84.2048733376915
 31
0.0
  0
LINE
  5
1E4
102
{ACAD_REACTORS
330
1F3
102
}
330
1E
100
AcDbEntity
  8
L-TYUSIN
  6
CENTER
 62
     1
100
AcDbLine
 10
373.6985476273675
 20
72.20487333769037
 30
0.0
 11
373.6985476273675
 21
84.20487333769179
 31
0.0
  0
ARC
  5
1E5
102
{ACAD_REACTORS
330
1F3
102
}
330
1E
100
AcDbEntity
  8
L-ZISSEN
100
AcDbCircle
 10
388.6985476273675
 20
78.20487333769108
 30
0.0
 40
3.399999999999999
100
AcDbArc
 50
17.1046351766448
 51
90.0
  0
LINE
  5
1E6
102
{ACAD_REACTORS
330
1F3
102
}
330
1E
100
AcDbEntity
  8
L-TYUSIN
  6
CENTER
 62
     1
100
AcDbLine
 10
388.6985476273677
 20
72.20487333769037
 30
0.0
 11
388.6985476273677
 21
84.20487333769179
 31
0.0
  0
LINE
  5
1E7
102
{ACAD_REACTORS
330
1F3
102
}
330
1E
100
AcDbEntity
  8
L-ZISSEN
100
AcDbLine
 10
448.6985476273674
 20
26.20487333769109
 30
0.0
 11
448.6985476273674
 21
89.20487333769107
 31
0.0
  0
LINE
  5
1E8
102
{ACAD_REACTORS
330
1F3
102
}
330
1E
100
AcDbEntity
  8
L-TYUSIN
  6
CENTER
 62
     1
100
AcDbLine
 10
412.6985476273673
 20
78.20487333769105
 30
0.0
 11
439.6985476273688
 21
78.20487333769105
 31
0.0
  0
LINE
  5
1E9
102
{ACAD_REACTORS
330
1F3
102
}
330
1E
100
AcDbEntity
  8
L-ZISSEN
100
AcDbLine
 10
433.6985476273675
 20
81.60487333769109
 30
0.0
 11
418.6985476273674
 21
81.60487333769109
 31
0.0
  0
LINE
  5
1EA
102
{ACAD_REACTORS
330
1F3
102
}
330
1E
100
AcDbEntity
  8
L-TYUSIN
  6
CENTER
 62
     1
100
AcDbLine
 10
426.1985476273673
 20
72.20487333769134
 30
0.0
 11
426.1985476273673
 21
84.2048733376915
 31
0.0
  0
ARC
  5
1EB
102
{ACAD_REACTORS
330
1F3
102
}
330
1E
100
AcDbEntity
  8
L-ZISSEN
100
AcDbCircle
 10
418.6985476273674
 20
78.20487333769108
 30
0.0
 40
3.399999999999999
100
AcDbArc
 50
90.0
 51
162.8953648233551
  0
LINE
  5
1EC
102
{ACAD_REACTORS
330
1F3
102
}
330
1E
100
AcDbEntity
  8
L-TYUSIN
  6
CENTER
 62
     1
100
AcDbLine
 10
418.6985476273672
 20
72.20487333769037
 30
0.0
 11
418.6985476273672
 21
84.20487333769179
 31
0.0
  0
LINE
  5
1ED
102
{ACAD_REACTORS
330
1F3
102
}
330
1E
100
AcDbEntity
  8
L-TYUSIN
  6
CENTER
 62
     1
100
AcDbLine
 10
433.6985476273675
 20
72.20487333769037
 30
0.0
 11
433.6985476273675
 21
84.20487333769179
 31
0.0
  0
ARC
  5
1EE
102
{ACAD_REACTORS
330
1F3
102
}
330
1E
100
AcDbEntity
  8
L-ZISSEN
100
AcDbCircle
 10
433.6985476273675
 20
78.20487333769108
 30
0.0
 40
3.399999999999999
100
AcDbArc
 50
344.6505229829853
 51
90.0
  0
LINE
  5
1EF
102
{ACAD_REACTORS
330
1F3
102
}
330
1E
100
AcDbEntity
  8
L-ZISSEN
100
AcDbLine
 10
448.6985476273674
 20
89.20487333769107
 30
0.0
 11
358.6985476273675
 21
89.20487333769107
 31
0.0
  0
LINE
  5
1F0
102
{ACAD_REACTORS
330
1F3
102
}
330
1E
100
AcDbEntity
  8
L-ZISSEN
100
AcDbLine
 10
358.6985476273675
 20
26.20487333769109
 30
0.0
 11
448.6985476273674
 21
26.20487333769109
 31
0.0
  0
SOLID
  5
1F1
330
1E
100
AcDbEntity
  8
L-ZISSEN
100
AcDbTrace
 10
407.2557020172784
 20
74.65194731953713
 30
0.0
 11
406.4319399480358
 21
75.70037177130036
 31
0.0
 12
403.6985476273675
 22
72.70487333769114
 32
0.0
 13
403.6985476273675
 23
72.70487333769114
 33
0.0
  0
LINE
  5
1F2
330
1E
100
AcDbEntity
  8
L-ZISSEN
100
AcDbLine
 10
406.8438209826571
 20
75.17615954541873
 30
0.0
 11
438.6985476273674
 21
100.2048733376911
 31
0.0
  0
TEXT
  5
1F4
330
1E
100
AcDbEntity
  8
L-ZISSEN
100
AcDbText
 10
446.6985476273674
 20
97.95487333769109
 30
0.0
 40
4.5
  1
P.P
100
AcDbText
  0
LINE
  5
1F5
330
1E
100
AcDbEntity
  8
L-ZISSEN
100
AcDbLine
 10
438.6985476273674
 20
100.2048733376911
 30
0.0
 11
442.6985476273674
 21
100.2048733376911
 31
0.0
  0
LINE
  5
1F7
102
{ACAD_REACTORS
330
200
102
}
330
1E
100
AcDbEntity
  8
L-ZISSEN
100
AcDbLine
 10
561.5873986335267
 20
26.20487333769109
 30
0.0
 11
501.5873986335267
 21
26.20487333769109
 31
0.0
  0
LINE
  5
1F8
102
{ACAD_REACTORS
330
200
102
}
330
1E
100
AcDbEntity
  8
L-ZISSEN
100
AcDbLine
 10
561.5873986335267
 20
89.20487333769111
 30
0.0
 11
554.0848212454551
 21
89.20487333769115
 31
0.0
  0
LINE
  5
1F9
102
{ACAD_REACTORS
330
200
102
}
330
1E
100
AcDbEntity
  8
L-ZISSEN
100
AcDbLine
 10
544.7065995103663
 20
54.20487333769108
 30
0.0
 11
554.0848212454551
 21
89.20487333769115
 31
0.0
  0
LINE
  5
1FA
102
{ACAD_REACTORS
330
200
102
}
330
1E
100
AcDbEntity
  8
L-ZISSEN
100
AcDbLine
 10
501.5873986335267
 20
54.20487333769108
 30
0.0
 11
544.7065995103663
 21
54.20487333769108
 31
0.0
  0
CIRCLE
  5
1FB
102
{ACAD_REACTORS
330
200
102
}
330
1E
100
AcDbEntity
  8
L-ZISSEN
100
AcDbCircle
 10
501.5873986335267
 20
40.20487333769108
 30
0.0
 40
11.25
  0
ARC
  5
1FC
102
{ACAD_REACTORS
330
200
102
}
330
1E
100
AcDbEntity
  8
L-ZISSEN
100
AcDbCircle
 10
501.5873986335267
 20
40.20487333769108
 30
0.0
 40
14.0
100
AcDbArc
 50
90.0
 51
270.0
  0
LINE
  5
1FD
102
{ACAD_REACTORS
330
200
102
}
330
1E
100
AcDbEntity
  8
L-ZISSEN
100
AcDbLine
 10
561.5873986335267
 20
26.20487333769109
 30
0.0
 11
561.5873986335267
 21
89.20487333769111
 31
0.0
  0
LINE
  5
1FE
330
1E
100
AcDbEntity
  8
L-ZISSEN
100
AcDbLine
 10
504.3460193231818
 20
75.60142506182888
 30
0.0
 11
527.5873986335264
 21
100.0048733376909
 31
0.0
  0
SOLID
  5
1FF
330
1E
100
AcDbEntity
  8
L-ZISSEN
100
AcDbTrace
 10
504.8287779438715
 20
75.14165494688635
 30
0.0
 11
503.8632607024921
 21
76.0611951767714
 31
0.0
 12
501.5873986335265
 22
72.70487333769094
 32
0.0
 13
501.5873986335265
 23
72.70487333769094
 33
0.0
  0
TEXT
  5
201
330
1E
100
AcDbEntity
  8
L-ZISSEN
100
AcDbText
 10
535.5873986335264
 20
97.75487333769092
 30
0.0
 40
4.5
  1
P.P
100
AcDbText
  0
LINE
  5
202
330
1E
100
AcDbEntity
  8
L-ZISSEN
100
AcDbLine
 10
527.5873986335264
 20
100.0048733376909
 30
0.0
 11
531.5873986335264
 21
100.0048733376909
 31
0.0
  0
ENDSEC
  0
SECTION
  2
OBJECTS
  0
DICTIONARY
  5
C
330
0
100
AcDbDictionary
281
     1
  3
ACAD_COLOR
350
23D
  3
ACAD_GROUP
350
D
  3
ACAD_LAYOUT
350
19
  3
ACAD_MATERIAL
350
23C
  3
ACAD_MLINESTYLE
350
16
  3
ACAD_PLOTSETTINGS
350
18
  3
ACAD_PLOTSTYLENAME
350
E
  3
ACAD_TABLESTYLE
350
23E
  3
ACDBHEADERROUNDTRIPXREC
350
247
  3
AcDbVariableDictionary
350
242
  0
DICTIONARY
  5
206
330
1E
100
AcDbDictionary
280
     1
281
     1
  3
ACAD_LAYOUTSELFREF
360
23A
  0
DICTIONARY
  5
208
330
1A
100
AcDbDictionary
280
     1
281
     1
  3
ACAD_LAYOUTSELFREF
360
239
  0
DICTIONARY
  5
23D
102
{ACAD_REACTORS
330
C
102
}
330
C
100
AcDbDictionary
281
     1
  0
DICTIONARY
  5
D
102
{ACAD_REACTORS
330
C
102
}
330
C
100
AcDbDictionary
281
     1
  3
*A1
350
173
  3
*A2
350
1DD
  3
*A3
350
1F3
  3
*A4
350
1F6
  3
*A5
350
200
  3
*A6
350
186
  3
*A7
350
1BE
  0
DICTIONARY
  5
19
102
{ACAD_REACTORS
330
C
102
}
330
C
100
AcDbDictionary
281
     1
  3
Model
350
21
  3
ﾚｲｱｳﾄ1
350
1D
  0
DICTIONARY
  5
23C
102
{ACAD_REACTORS
330
C
102
}
330
C
100
AcDbDictionary
281
     1
  0
DICTIONARY
  5
16
102
{ACAD_REACTORS
330
C
102
}
330
C
100
AcDbDictionary
281
     1
  3
Standard
350
17
  0
DICTIONARY
  5
18
102
{ACAD_REACTORS
330
C
102
}
330
C
100
AcDbDictionary
281
     1
  0
ACDBDICTIONARYWDFLT
  5
E
102
{ACAD_REACTORS
330
C
102
}
330
C
100
AcDbDictionary
281
     1
  3
Normal
350
F
100
AcDbDictionaryWithDefault
340
F
1001
ACAD
1000
TREAT_AS_HARD
1070
     0
  0
DICTIONARY
  5
23E
102
{ACAD_REACTORS
330
C
102
}
330
C
100
AcDbDictionary
281
     1
  3
Standard
350
23F
  0
DICTIONARY
  5
247
102
{ACAD_REACTORS
330
C
102
}
330
C
100
AcDbDictionary
281
     1
  0
DICTIONARY
  5
242
102
{ACAD_REACTORS
330
C
102
}
330
C
100
AcDbDictionary
281
     1
  3
CTABLESTYLE
350
243
  3
DIMASSOC
350
244
  3
PROJECTNAME
350
245
  0
XRECORD
  5
23A
102
{ACAD_REACTORS
330
206
102
}
330
206
100
AcDbXrecord
280
     1
340
1E
  0
XRECORD
  5
239
102
{ACAD_REACTORS
330
208
102
}
330
208
100
AcDbXrecord
280
     1
340
1A
  0
GROUP
  5
173
102
{ACAD_REACTORS
330
D
102
}
330
D
100
AcDbGroup
300

 70
     1
 71
     1
  0
GROUP
  5
1DD
102
{ACAD_REACTORS
330
D
102
}
330
D
100
AcDbGroup
300

 70
     1
 71
     1
  0
GROUP
  5
1F3
102
{ACAD_REACTORS
330
D
102
}
330
D
100
AcDbGroup
300

 70
     1
 71
     1
340
1DF
340
1E0
340
1E1
340
1E2
340
1E3
340
1E4
340
1E5
340
1E6
340
1DE
340
1E7
340
1E8
340
1E9
340
1EA
340
1EB
340
1EC
340
1ED
340
1EE
340
1EF
340
1F0
  0
GROUP
  5
1F6
102
{ACAD_REACTORS
330
D
102
}
330
D
100
AcDbGroup
300

 70
     1
 71
     1
  0
GROUP
  5
200
102
{ACAD_REACTORS
330
D
102
}
330
D
100
AcDbGroup
300

 70
     1
 71
     1
340
1F8
340
1F7
340
1F9
340
1FA
340
1FB
340
1FC
340
1FD
  0
GROUP
  5
186
102
{ACAD_REACTORS
330
D
102
}
330
D
100
AcDbGroup
300

 70
     1
 71
     1
  0
GROUP
  5
1BE
102
{ACAD_REACTORS
330
D
102
}
330
D
100
AcDbGroup
300

 70
     1
 71
     1
  0
LAYOUT
  5
21
102
{ACAD_XDICTIONARY
360
24A
102
}
102
{ACAD_REACTORS
330
19
102
}
330
19
100
AcDbPlotSettings
  1

  2
DocuCentre-III C4400
  4

  6

 40
0.0
 41
0.0
 42
0.0
 43
0.0
 44
0.0
 45
0.0
 46
0.0
 47
0.0
 48
0.0
 49
0.0
140
0.0
141
0.0
142
1.0
143
1.0
 70
  1712
 72
     0
 73
     0
 74
     0
  7
TACO.ctb
 75
     0
147
1.0
148
0.0
149
0.0
100
AcDbLayout
  1
Model
 70
     1
 71
     0
 10
0.0
 20
0.0
 11
12.0
 21
9.0
 12
0.0
 22
0.0
 32
0.0
 14
0.0
 24
0.0
 34
0.0
 15
0.0
 25
0.0
 35
0.0
146
0.0
 13
0.0
 23
0.0
 33
0.0
 16
1.0
 26
0.0
 36
0.0
 17
0.0
 27
1.0
 37
0.0
 76
     0
330
1E
  0
LAYOUT
  5
1D
102
{ACAD_XDICTIONARY
360
248
102
}
102
{ACAD_REACTORS
330
19
102
}
330
19
100
AcDbPlotSettings
  1

  2
DocuCentre-III C4400
  4

  6

 40
0.0
 41
0.0
 42
0.0
 43
0.0
 44
0.0
 45
0.0
 46
0.0
 47
0.0
 48
0.0
 49
0.0
140
0.0
141
0.0
142
1.0
143
1.0
 70
   688
 72
     0
 73
     0
 74
     5
  7
TACO.ctb
 75
    16
147
1.0
148
0.0
149
0.0
100
AcDbLayout
  1
ﾚｲｱｳﾄ1
 70
     0
 71
     1
 10
0.0
 20
0.0
 11
12.0
 21
9.0
 12
0.0
 22
0.0
 32
0.0
 14
1.000000000000000E+20
 24
1.000000000000000E+20
 34
1.000000000000000E+20
 15
-1.000000000000000E+20
 25
-1.000000000000000E+20
 35
-1.000000000000000E+20
146
0.0
 13
0.0
 23
0.0
 33
0.0
 16
1.0
 26
0.0
 36
0.0
 17
0.0
 27
1.0
 37
0.0
 76
     0
330
1A
  0
MLINESTYLE
  5
17
102
{ACAD_REACTORS
330
16
102
}
330
16
100
AcDbMlineStyle
  2
STANDARD
 70
     0
  3

 62
   256
 51
90.0
 52
90.0
 71
     2
 49
0.5
 62
   256
  6
BYLAYER
 49
-0.5
 62
   256
  6
BYLAYER
  0
ACDBPLACEHOLDER
  5
F
102
{ACAD_REACTORS
330
E
102
}
330
E
  0
TABLESTYLE
  5
23F
102
{ACAD_REACTORS
330
23E
102
}
330
23E
100
AcDbTableStyle
  3
Standard
 70
     0
 71
     0
 40
0.06
 41
0.06
280
     0
281
     0
  7
STANDARD
140
0.18
170
     2
 62
     0
 63
     7
283
     0
274
    -2
284
     1
 64
     0
275
    -2
285
     1
 65
     0
276
    -2
286
     1
 66
     0
277
    -2
287
     1
 67
     0
278
    -2
288
     1
 68
     0
279
    -2
289
     1
 69
     0
  7
STANDARD
140
0.25
170
     5
 62
     0
 63
     7
283
     0
274
    -2
284
     1
 64
     0
275
    -2
285
     1
 65
     0
276
    -2
286
     1
 66
     0
277
    -2
287
     1
 67
     0
278
    -2
288
     1
 68
     0
279
    -2
289
     1
 69
     0
  7
STANDARD
140
0.18
170
     5
 62
     0
 63
     7
283
     0
274
    -2
284
     1
 64
     0
275
    -2
285
     1
 65
     0
276
    -2
286
     1
 66
     0
277
    -2
287
     1
 67
     0
278
    -2
288
     1
 68
     0
279
    -2
289
     1
 69
     0
  0
DICTIONARYVAR
  5
243
102
{ACAD_REACTORS
330
242
102
}
330
242
100
DictionaryVariables
280
     0
  1
STANDARD
  0
DICTIONARYVAR
  5
244
102
{ACAD_REACTORS
330
242
102
}
330
242
100
DictionaryVariables
280
     0
  1
1
  0
DICTIONARYVAR
  5
245
102
{ACAD_REACTORS
330
242
102
}
330
242
100
DictionaryVariables
280
     0
  1

  0
DICTIONARY
  5
24A
330
21
100
AcDbDictionary
280
     1
281
     1
  3
ACAD_XREC_ROUNDTRIP
360
24B
  0
DICTIONARY
  5
248
330
1D
100
AcDbDictionary
280
     1
281
     1
  3
ACAD_XREC_ROUNDTRIP
360
249
  0
XRECORD
  5
24B
102
{ACAD_REACTORS
330
24A
102
}
330
24A
100
AcDbXrecord
280
     1
102
SHADEPLOT
 70
     0
102
SHADEPLOTRESLEVEL
 70
     2
102
SHADEPLOTCUSTOMDPI
 70
   300
  0
XRECORD
  5
249
102
{ACAD_REACTORS
330
248
102
}
330
248
100
AcDbXrecord
280
     1
102
SHADEPLOT
 70
     0
102
SHADEPLOTRESLEVEL
 70
     2
102
SHADEPLOTCUSTOMDPI
 70
   300
  0
ENDSEC
  0
EOF
