  0
SECTION
  2
HEADER
  9
$ACADVER
  1
AC1024
  9
$ACADMAINTVER
 70
     6
  9
$DWGCODEPAGE
  3
ANSI_932
  9
$LASTSAVEDBY
  1
y-iwai
  9
$INSBASE
 10
0.0
 20
0.0
 30
0.0
  9
$EXTMIN
 10
817.3717591251102
 20
840.590113802472
 30
-0.3006617853809416
  9
$EXTMAX
 10
1232.186301986013
 20
1328.896847091288
 30
0.0000000000000001
  9
$LIMMIN
 10
0.0
 20
0.0
  9
$LIMMAX
 10
12.0
 20
9.0
  9
$ORTHOMODE
 70
     0
  9
$REGENMODE
 70
     1
  9
$FILLMODE
 70
     1
  9
$QTEXTMODE
 70
     0
  9
$MIRRTEXT
 70
     1
  9
$LTSCALE
 40
3.0
  9
$ATTMODE
 70
     1
  9
$TEXTSIZE
 40
1.5
  9
$TRACEWID
 40
0.05
  9
$TEXTSTYLE
  7
KANJI
  9
$CLAYER
  8
L-ZISSEN
  9
$CELTYPE
  6
BYLAYER
  9
$CECOLOR
 62
   256
  9
$CELTSCALE
 40
1.0
  9
$DISPSILH
 70
     0
  9
$DIMSCALE
 40
3.0
  9
$DIMASZ
 40
2.0
  9
$DIMEXO
 40
1.0
  9
$DIMDLI
 40
8.0
  9
$DIMRND
 40
0.0
  9
$DIMDLE
 40
0.0
  9
$DIMEXE
 40
1.0
  9
$DIMTP
 40
0.0
  9
$DIMTM
 40
0.0
  9
$DIMTXT
 40
2.8
  9
$DIMCEN
 40
1.5
  9
$DIMTSZ
 40
0.0
  9
$DIMTOL
 70
     0
  9
$DIMLIM
 70
     0
  9
$DIMTIH
 70
     0
  9
$DIMTOH
 70
     0
  9
$DIMSE1
 70
     0
  9
$DIMSE2
 70
     0
  9
$DIMTAD
 70
     1
  9
$DIMZIN
 70
     8
  9
$DIMBLK
  1

  9
$DIMASO
 70
     1
  9
$DIMSHO
 70
     0
  9
$DIMPOST
  1

  9
$DIMAPOST
  1

  9
$DIMALT
 70
     0
  9
$DIMALTD
 70
     2
  9
$DIMALTF
 40
25.4
  9
$DIMLFAC
 40
1.0
  9
$DIMTOFL
 70
     1
  9
$DIMTVP
 40
0.0
  9
$DIMTIX
 70
     1
  9
$DIMSOXD
 70
     0
  9
$DIMSAH
 70
     0
  9
$DIMBLK1
  1

  9
$DIMBLK2
  1

  9
$DIMSTYLE
  2
STANDARD
  9
$DIMCLRD
 70
     0
  9
$DIMCLRE
 70
     0
  9
$DIMCLRT
 70
     0
  9
$DIMTFAC
 40
1.0
  9
$DIMGAP
 40
1.4
  9
$DIMJUST
 70
     0
  9
$DIMSD1
 70
     0
  9
$DIMSD2
 70
     0
  9
$DIMTOLJ
 70
     1
  9
$DIMTZIN
 70
     8
  9
$DIMALTZ
 70
     0
  9
$DIMALTTZ
 70
     0
  9
$DIMUPT
 70
     0
  9
$DIMDEC
 70
     4
  9
$DIMTDEC
 70
     4
  9
$DIMALTU
 70
     2
  9
$DIMALTTD
 70
     2
  9
$DIMTXSTY
  7
KANJI
  9
$DIMAUNIT
 70
     0
  9
$DIMADEC
 70
     0
  9
$DIMALTRND
 40
0.0
  9
$DIMAZIN
 70
     0
  9
$DIMDSEP
 70
    46
  9
$DIMATFIT
 70
     3
  9
$DIMFRAC
 70
     0
  9
$DIMLDRBLK
  1

  9
$DIMLUNIT
 70
     2
  9
$DIMLWD
 70
    -2
  9
$DIMLWE
 70
    -2
  9
$DIMTMOVE
 70
     0
  9
$DIMFXL
 40
1.0
  9
$DIMFXLON
 70
     0
  9
$DIMJOGANG
 40
0.7853981633974483
  9
$DIMTFILL
 70
     0
  9
$DIMTFILLCLR
 70
     0
  9
$DIMARCSYM
 70
     0
  9
$DIMLTYPE
  6

  9
$DIMLTEX1
  6

  9
$DIMLTEX2
  6

  9
$DIMTXTDIRECTION
 70
     0
  9
$LUNITS
 70
     2
  9
$LUPREC
 70
     4
  9
$SKETCHINC
 40
0.1
  9
$FILLETRAD
 40
5.0
  9
$AUNITS
 70
     0
  9
$AUPREC
 70
     0
  9
$MENU
  1
acad
  9
$ELEVATION
 40
0.0
  9
$PELEVATION
 40
0.0
  9
$THICKNESS
 40
0.0
  9
$LIMCHECK
 70
     0
  9
$CHAMFERA
 40
0.0
  9
$CHAMFERB
 40
0.0
  9
$CHAMFERC
 40
0.0
  9
$CHAMFERD
 40
0.0
  9
$SKPOLY
 70
     0
  9
$TDCREATE
 40
2450178.944598264
  9
$TDUCREATE
 40
2450178.569598264
  9
$TDUPDATE
 40
2458829.819995058
  9
$TDUUPDATE
 40
2458829.444995058
  9
$TDINDWG
 40
0.899636331
  9
$TDUSRTIMER
 40
0.00033875
  9
$USRTIMER
 70
     1
  9
$ANGBASE
 50
0.0
  9
$ANGDIR
 70
     0
  9
$PDMODE
 70
     0
  9
$PDSIZE
 40
0.0
  9
$PLINEWID
 40
0.0
  9
$SPLFRAME
 70
     0
  9
$SPLINETYPE
 70
     6
  9
$SPLINESEGS
 70
     8
  9
$HANDSEED
  5
3D99
  9
$SURFTAB1
 70
     6
  9
$SURFTAB2
 70
     6
  9
$SURFTYPE
 70
     6
  9
$SURFU
 70
     6
  9
$SURFV
 70
     6
  9
$UCSBASE
  2

  9
$UCSNAME
  2

  9
$UCSORG
 10
0.0
 20
0.0
 30
0.0
  9
$UCSXDIR
 10
1.0
 20
0.0
 30
0.0
  9
$UCSYDIR
 10
0.0
 20
1.0
 30
0.0
  9
$UCSORTHOREF
  2

  9
$UCSORTHOVIEW
 70
     0
  9
$UCSORGTOP
 10
0.0
 20
0.0
 30
0.0
  9
$UCSORGBOTTOM
 10
0.0
 20
0.0
 30
0.0
  9
$UCSORGLEFT
 10
0.0
 20
0.0
 30
0.0
  9
$UCSORGRIGHT
 10
0.0
 20
0.0
 30
0.0
  9
$UCSORGFRONT
 10
0.0
 20
0.0
 30
0.0
  9
$UCSORGBACK
 10
0.0
 20
0.0
 30
0.0
  9
$PUCSBASE
  2

  9
$PUCSNAME
  2

  9
$PUCSORG
 10
0.0
 20
0.0
 30
0.0
  9
$PUCSXDIR
 10
1.0
 20
0.0
 30
0.0
  9
$PUCSYDIR
 10
0.0
 20
1.0
 30
0.0
  9
$PUCSORTHOREF
  2

  9
$PUCSORTHOVIEW
 70
     0
  9
$PUCSORGTOP
 10
0.0
 20
0.0
 30
0.0
  9
$PUCSORGBOTTOM
 10
0.0
 20
0.0
 30
0.0
  9
$PUCSORGLEFT
 10
0.0
 20
0.0
 30
0.0
  9
$PUCSORGRIGHT
 10
0.0
 20
0.0
 30
0.0
  9
$PUCSORGFRONT
 10
0.0
 20
0.0
 30
0.0
  9
$PUCSORGBACK
 10
0.0
 20
0.0
 30
0.0
  9
$USERI1
 70
     0
  9
$USERI2
 70
     0
  9
$USERI3
 70
     0
  9
$USERI4
 70
     0
  9
$USERI5
 70
     0
  9
$USERR1
 40
0.0
  9
$USERR2
 40
0.0
  9
$USERR3
 40
0.0
  9
$USERR4
 40
0.0
  9
$USERR5
 40
0.0
  9
$WORLDVIEW
 70
     1
  9
$SHADEDGE
 70
     3
  9
$SHADEDIF
 70
    70
  9
$TILEMODE
 70
     1
  9
$MAXACTVP
 70
    16
  9
$PINSBASE
 10
0.0
 20
0.0
 30
0.0
  9
$PLIMCHECK
 70
     0
  9
$PEXTMIN
 10
1.000000000000000E+20
 20
1.000000000000000E+20
 30
1.000000000000000E+20
  9
$PEXTMAX
 10
-1.000000000000000E+20
 20
-1.000000000000000E+20
 30
-1.000000000000000E+20
  9
$PLIMMIN
 10
0.0
 20
0.0
  9
$PLIMMAX
 10
0.0
 20
0.0
  9
$UNITMODE
 70
     0
  9
$VISRETAIN
 70
     0
  9
$PLINEGEN
 70
     0
  9
$PSLTSCALE
 70
     0
  9
$TREEDEPTH
 70
  3020
  9
$CMLSTYLE
  2
STANDARD
  9
$CMLJUST
 70
     0
  9
$CMLSCALE
 40
1.0
  9
$PROXYGRAPHICS
 70
     1
  9
$MEASUREMENT
 70
     0
  9
$CELWEIGHT
370
    -1
  9
$ENDCAPS
280
     0
  9
$JOINSTYLE
280
     0
  9
$LWDISPLAY
290
     0
  9
$INSUNITS
 70
     0
  9
$HYPERLINKBASE
  1

  9
$STYLESHEET
  1

  9
$XEDIT
290
     1
  9
$CEPSNTYPE
380
     0
  9
$PSTYLEMODE
290
     1
  9
$FINGERPRINTGUID
  2
{AA8BBF23-CCEE-4FE5-B81D-141338CA9047}
  9
$VERSIONGUID
  2
{FAEB1C32-E019-11D5-929B-00C0DF256EC4}
  9
$EXTNAMES
290
     1
  9
$PSVPSCALE
 40
0.0
  9
$OLESTARTUP
290
     0
  9
$SORTENTS
280
   127
  9
$INDEXCTL
280
     0
  9
$HIDETEXT
280
     1
  9
$XCLIPFRAME
280
     2
  9
$HALOGAP
280
     0
  9
$OBSCOLOR
 70
   257
  9
$OBSLTYPE
280
     0
  9
$INTERSECTIONDISPLAY
280
     0
  9
$INTERSECTIONCOLOR
 70
   257
  9
$DIMASSOC
280
     2
  9
$PROJECTNAME
  1

  9
$CAMERADISPLAY
290
     0
  9
$LENSLENGTH
 40
50.0
  9
$CAMERAHEIGHT
 40
0.0
  9
$STEPSPERSEC
 40
2.0
  9
$STEPSIZE
 40
6.0
  9
$3DDWFPREC
 40
2.0
  9
$PSOLWIDTH
 40
0.25
  9
$PSOLHEIGHT
 40
4.0
  9
$LOFTANG1
 40
1.570796326794897
  9
$LOFTANG2
 40
1.570796326794897
  9
$LOFTMAG1
 40
0.0
  9
$LOFTMAG2
 40
0.0
  9
$LOFTPARAM
 70
     7
  9
$LOFTNORMALS
280
     1
  9
$LATITUDE
 40
37.795
  9
$LONGITUDE
 40
-122.394
  9
$NORTHDIRECTION
 40
0.0
  9
$TIMEZONE
 70
 -8000
  9
$LIGHTGLYPHDISPLAY
280
     1
  9
$TILEMODELIGHTSYNCH
280
     1
  9
$SOLIDHIST
280
     0
  9
$SHOWHIST
280
     1
  9
$DWFFRAME
280
     2
  9
$DGNFRAME
280
     2
  9
$REALWORLDSCALE
290
     1
  9
$INTERFERECOLOR
 62
   256
  9
$CSHADOW
280
     0
  9
$SHADOWPLANELOCATION
 40
0.0
  0
ENDSEC
  0
SECTION
  2
CLASSES
  0
CLASS
  1
LWPOLYLINE
  2
AcDbPolyline
  3
ObjectDBX Classes
 90
        0
 91
        1
280
     0
281
     1
  0
CLASS
  1
HATCH
  2
AcDbHatch
  3
ObjectDBX Classes
 90
        0
 91
        1
280
     0
281
     1
  0
CLASS
  1
ACAD_ZOMBIE_ENTITY
  2
AcDbDxfZombieEntity
  3
AutoCAD
 90
        0
 91
        4
280
     0
281
     1
  0
CLASS
  1
ACAD_ZOMBIE_OBJECT
  2
AcDbDxfZombieObject
  3
AutoCAD
 90
        0
 91
        4
280
     0
281
     0
  0
CLASS
  1
VISUALSTYLE
  2
AcDbVisualStyle
  3
ObjectDBX Classes
 90
     4095
 91
        4
280
     0
281
     0
  0
CLASS
  1
ACDBDICTIONARYWDFLT
  2
AcDbDictionaryWithDefault
  3
ObjectDBX Classes
 90
        0
 91
        4
280
     0
281
     0
  0
CLASS
  1
SCALE
  2
AcDbScale
  3
ObjectDBX Classes
 90
     1153
 91
        4
280
     0
281
     0
  0
CLASS
  1
MATERIAL
  2
AcDbMaterial
  3
ObjectDBX Classes
 90
     1153
 91
        4
280
     0
281
     0
  0
CLASS
  1
TABLESTYLE
  2
AcDbTableStyle
  3
ObjectDBX Classes
 90
     4095
 91
        4
280
     0
281
     0
  0
CLASS
  1
MLEADERSTYLE
  2
AcDbMLeaderStyle
  3
ACDB_MLEADERSTYLE_CLASS
 90
     4095
 91
        4
280
     0
281
     0
  0
CLASS
  1
SUN
  2
AcDbSun
  3
SCENEOE
 90
     1153
 91
        4
280
     0
281
     0
  0
CLASS
  1
RASTERVARIABLES
  2
AcDbRasterVariables
  3
ISM
 90
        0
 91
        4
280
     0
281
     0
  0
CLASS
  1
DICTIONARYVAR
  2
AcDbDictionaryVar
  3
ObjectDBX Classes
 90
        0
 91
        4
280
     0
281
     0
  0
CLASS
  1
DIMASSOC
  2
AcDbDimAssoc
  3
"AcDbDimAssoc|Product Desc:     AcDim ARX App For Dimension|Company:          Autodesk, Inc.|WEB Address:      www.autodesk.com"
 90
        0
 91
        4
280
     0
281
     0
  0
CLASS
  1
SORTENTSTABLE
  2
AcDbSortentsTable
  3
ObjectDBX Classes
 90
        0
 91
        4
280
     0
281
     0
  0
CLASS
  1
CELLSTYLEMAP
  2
AcDbCellStyleMap
  3
ObjectDBX Classes
 90
     1152
 91
        4
280
     0
281
     0
  0
ENDSEC
  0
SECTION
  2
TABLES
  0
TABLE
  2
VPORT
  5
12
330
0
100
AcDbSymbolTable
 70
     2
  0
VPORT
  5
1070
330
12
100
AcDbSymbolTableRecord
100
AcDbViewportTableRecord
  2
*ACTIVE
 70
     0
 10
0.0
 20
0.0
 11
1.0
 21
1.0
 12
1024.779030555562
 22
1084.74348044688
 13
0.0
 23
0.0
 14
1.0
 24
1.0
 15
0.0
 25
0.0
 16
0.0
 26
0.0
 36
1.0
 17
0.0
 27
0.0
 37
0.0
 40
498.0728679545921
 41
2.578253706754531
 42
50.0
 43
0.0
 44
0.0
 50
0.0
 51
0.0
 71
    16
 72
   100
 73
     1
 74
     0
 75
     0
 76
     1
 77
     0
 78
     0
281
     0
 65
     1
110
0.0
120
0.0
130
0.0
111
1.0
121
0.0
131
0.0
112
0.0
122
1.0
132
0.0
 79
     0
146
0.0
348
1076
 60
     3
 61
     5
292
     1
282
     1
141
0.0
142
0.0
 63
   256
361
10BB
  0
ENDTAB
  0
TABLE
  2
LTYPE
  5
E
330
0
100
AcDbSymbolTable
 70
     6
  0
LTYPE
  5
F
330
E
100
AcDbSymbolTableRecord
100
AcDbLinetypeTableRecord
  2
BYBLOCK
 70
     0
  3

 72
    65
 73
     0
 40
0.0
  0
LTYPE
  5
6
330
E
100
AcDbSymbolTableRecord
100
AcDbLinetypeTableRecord
  2
BYLAYER
 70
     0
  3

 72
    65
 73
     0
 40
0.0
  0
LTYPE
  5
5
330
E
100
AcDbSymbolTableRecord
100
AcDbLinetypeTableRecord
  2
CONTINUOUS
 70
     0
  3
Solid line
 72
    65
 73
     0
 40
0.0
  0
LTYPE
  5
1DF
330
E
100
AcDbSymbolTableRecord
100
AcDbLinetypeTableRecord
  2
CENTER
 70
     0
  3
----- - ----- - ----- - ----- - -----
 72
    65
 73
     4
 40
35.0
 49
30.0
 74
     0
 49
-1.5
 74
     0
 49
2.0
 74
     0
 49
-1.5
 74
     0
  0
LTYPE
  5
327
330
E
100
AcDbSymbolTableRecord
100
AcDbLinetypeTableRecord
  2
HIDDEN
 70
     0
  3
- - - - - - - - - - - - - - -
 72
    65
 73
     2
 40
2.0
 49
1.0
 74
     0
 49
-1.0
 74
     0
  0
LTYPE
  5
1C
330
E
100
AcDbSymbolTableRecord
100
AcDbLinetypeTableRecord
  2
PHANTOM
 70
     0
  3
_____ _ _ _____ _ _ _____
 72
    65
 73
     6
 40
10.0
 49
5.0
 74
     0
 49
-1.0
 74
     0
 49
1.0
 74
     0
 49
-1.0
 74
     0
 49
1.0
 74
     0
 49
-1.0
 74
     0
  0
LTYPE
  5
1002
330
E
100
AcDbSymbolTableRecord
100
AcDbLinetypeTableRecord
  2
CENTER1
 70
     0
  3
----- - ----- - ----- - ----- - ----- - -----
 72
    65
 73
     4
 40
20.0
 49
15.0
 74
     0
 49
-1.5
 74
     0
 49
2.0
 74
     0
 49
-1.5
 74
     0
  0
LTYPE
  5
1100
330
E
100
AcDbSymbolTableRecord
100
AcDbLinetypeTableRecord
  2
CENTER2
 70
     0
  3
___ _ ___ _ ___ _ ___ _ ___ _ ___ _ ___ _ ___ _
 72
    65
 73
     4
 40
1.125
 49
0.75
 74
     0
 49
-0.125
 74
     0
 49
0.125
 74
     0
 49
-0.125
 74
     0
  0
ENDTAB
  0
TABLE
  2
LAYER
  5
B
102
{ACAD_XDICTIONARY
360
10F1
102
}
330
0
100
AcDbSymbolTable
 70
    12
  0
LAYER
  5
4
330
B
100
AcDbSymbolTableRecord
100
AcDbLayerTableRecord
  2
0
 70
     0
 62
     7
  6
CONTINUOUS
370
    -3
390
108C
347
10B5
  0
LAYER
  5
1E1
330
B
100
AcDbSymbolTableRecord
100
AcDbLayerTableRecord
  2
L-ZISSEN
 70
     0
 62
     7
  6
CONTINUOUS
370
    -3
390
108C
347
10B5
  0
LAYER
  5
1DE
330
B
100
AcDbSymbolTableRecord
100
AcDbLayerTableRecord
  2
L-TYUSIN
 70
     0
 62
     1
  6
CENTER
370
    -3
390
108C
347
10B5
  0
LAYER
  5
326
330
B
100
AcDbSymbolTableRecord
100
AcDbLayerTableRecord
  2
L-HASEN
 70
     0
 62
     5
  6
HIDDEN
370
    -3
390
108C
347
10B5
  0
LAYER
  5
1B
330
B
100
AcDbSymbolTableRecord
100
AcDbLayerTableRecord
  2
L-SOUZOU
 70
     0
 62
     2
  6
PHANTOM
370
    -3
390
108C
347
10B5
  0
LAYER
  5
10FC
330
B
100
AcDbSymbolTableRecord
100
AcDbLayerTableRecord
  2
PV
 70
     0
 62
     7
  6
CONTINUOUS
370
    -3
390
108C
347
10B5
  0
LAYER
  5
147A
330
B
100
AcDbSymbolTableRecord
100
AcDbLayerTableRecord
  2
Defpoints
 70
     0
 62
     7
  6
CONTINUOUS
290
     0
370
    -3
390
108C
347
10B5
  0
LAYER
  5
16F1
330
B
100
AcDbSymbolTableRecord
100
AcDbLayerTableRecord
  2
SUNPOU
 70
     0
 62
     3
  6
CONTINUOUS
370
    -3
390
108C
347
10B5
  0
LAYER
  5
1747
102
{ACAD_XDICTIONARY
360
1748
102
}
330
B
100
AcDbSymbolTableRecord
100
AcDbLayerTableRecord
  2
LAYER007
 70
     0
 62
     7
  6
CONTINUOUS
370
    -3
390
108C
347
10B5
  0
LAYER
  5
1BC9
330
B
100
AcDbSymbolTableRecord
100
AcDbLayerTableRecord
  2
L-SAISEN
 70
     0
 62
     6
  6
CONTINUOUS
370
    -3
390
108C
347
10B5
  0
ENDTAB
  0
TABLE
  2
STYLE
  5
C
330
0
100
AcDbSymbolTable
 70
     2
  0
STYLE
  5
D
330
C
100
AcDbSymbolTableRecord
100
AcDbTextStyleTableRecord
  2
STANDARD
 70
     0
 40
0.0
 41
0.8
 50
0.0
 71
     0
 42
5.0
  3
C:\PROGRAM FILES\AUTOCAD LT\SIMPLEX
  4
BIGFONT.shx
  0
STYLE
  5
1D
330
C
100
AcDbSymbolTableRecord
100
AcDbTextStyleTableRecord
  2
KANJI
 70
     0
 40
0.0
 41
0.8
 50
0.0
 71
     0
 42
1.5
  3
C:\Program Files\AutoCAD LT\ROMANS
  4
BIGFONT
  0
ENDTAB
  0
TABLE
  2
VIEW
  5
10
330
0
100
AcDbSymbolTable
 70
     0
  0
ENDTAB
  0
TABLE
  2
UCS
  5
11
330
0
100
AcDbSymbolTable
 70
     0
  0
ENDTAB
  0
TABLE
  2
APPID
  5
14
330
0
100
AcDbSymbolTable
 70
     2
  0
APPID
  5
15
330
14
100
AcDbSymbolTableRecord
100
AcDbRegAppTableRecord
  2
ACAD
 70
     0
  0
APPID
  5
174E
330
14
100
AcDbSymbolTableRecord
100
AcDbRegAppTableRecord
  2
ACAD_NAV_VCDISPLAY
 70
     0
  0
ENDTAB
  0
TABLE
  2
DIMSTYLE
  5
16
330
0
100
AcDbSymbolTable
 70
     2
100
AcDbDimStyleTable
  0
DIMSTYLE
105
1F
330
16
100
AcDbSymbolTableRecord
100
AcDbDimStyleTableRecord
  2
STANDARD
 70
     0
178
     0
340
D
  0
DIMSTYLE
105
1BCE
330
16
100
AcDbSymbolTableRecord
100
AcDbDimStyleTableRecord
  2
STANDARD$7
 70
     0
 41
2.0
 42
1.0
 44
1.0
 73
     0
 74
     0
 77
     3
140
3.0
147
1.0
176
     3
177
     3
178
     3
340
D
  0
ENDTAB
  0
TABLE
  2
BLOCK_RECORD
  5
1
330
0
100
AcDbSymbolTable
 70
    14
  0
BLOCK_RECORD
  5
2
330
1
100
AcDbSymbolTableRecord
100
AcDbBlockTableRecord
  2
*MODEL_SPACE
340
10B0
 70
     0
280
     1
281
     0
  0
BLOCK_RECORD
  5
8
330
1
100
AcDbSymbolTableRecord
100
AcDbBlockTableRecord
  2
*PAPER_SPACE
340
10B1
 70
     0
280
     1
281
     0
  0
BLOCK_RECORD
  5
F4B
330
1
100
AcDbSymbolTableRecord
100
AcDbBlockTableRecord
  2
ITOH105
340
0
 70
     0
280
     1
281
     0
  0
BLOCK_RECORD
  5
E45
330
1
100
AcDbSymbolTableRecord
100
AcDbBlockTableRecord
  2
_OPEN
340
0
102
{BLKREFS
331
3CC3
102
}
 70
     0
280
     1
281
     0
  0
BLOCK_RECORD
  5
18B7
330
1
100
AcDbSymbolTableRecord
100
AcDbBlockTableRecord
  2
_OPEN30
340
0
 70
     0
280
     1
281
     0
  0
ENDTAB
  0
ENDSEC
  0
SECTION
  2
BLOCKS
  0
BLOCK
  5
3
330
2
100
AcDbEntity
  8
0
100
AcDbBlockBegin
  2
*MODEL_SPACE
 70
     0
 10
0.0
 20
0.0
 30
0.0
  3
*MODEL_SPACE
  1

  0
ENDBLK
  5
7
330
2
100
AcDbEntity
  8
0
100
AcDbBlockEnd
  0
BLOCK
  5
9
330
8
100
AcDbEntity
 67
     1
  8
0
100
AcDbBlockBegin
  2
*PAPER_SPACE
 70
     0
 10
0.0
 20
0.0
 30
0.0
  3
*PAPER_SPACE
  1

  0
ENDBLK
  5
A
330
8
100
AcDbEntity
 67
     1
  8
0
100
AcDbBlockEnd
  0
BLOCK
  5
F53
330
F4B
100
AcDbEntity
  8
0
100
AcDbBlockBegin
  2
ITOH105
 70
     0
 10
0.0
 20
0.0
 30
0.0
  3
ITOH105
  1

  0
LINE
  5
F4C
330
F4B
100
AcDbEntity
  8
L-ZISSEN
100
AcDbLine
 10
-14.1543724759548
 20
23.2493648042106
 30
0.0
 11
14.8456275240452
 21
23.2493648042106
 31
0.0
  0
LINE
  5
F4D
330
F4B
100
AcDbEntity
  8
L-ZISSEN
100
AcDbLine
 10
14.8456275240452
 20
23.2493648042106
 30
0.0
 11
14.8456275240452
 21
27.04936480421055
 31
0.0
  0
LINE
  5
F4E
330
F4B
100
AcDbEntity
  8
L-ZISSEN
100
AcDbLine
 10
-14.1543724759548
 20
27.04936480421055
 30
0.0
 11
-14.1543724759548
 21
23.2493648042106
 31
0.0
  0
LINE
  5
F4F
330
F4B
100
AcDbEntity
  8
L-ZISSEN
100
AcDbLine
 10
11.3456275240452
 20
13.34936480421062
 30
0.0
 11
-10.6543724759548
 21
13.34936480421062
 31
0.0
  0
LINE
  5
F50
330
F4B
100
AcDbEntity
  8
L-ZISSEN
100
AcDbLine
 10
-10.6543724759548
 20
13.34936480421062
 30
0.0
 11
-10.6543724759548
 21
23.2493648042106
 31
0.0
  0
LINE
  5
F51
330
F4B
100
AcDbEntity
  8
L-ZISSEN
100
AcDbLine
 10
11.3456275240452
 20
13.34936480421062
 30
0.0
 11
11.3456275240452
 21
23.2493648042106
 31
0.0
  0
LINE
  5
F52
330
F4B
100
AcDbEntity
  8
L-TYUSIN
100
AcDbLine
 10
0.3456275240451987
 20
27.04936480421043
 30
0.0
 11
0.3456275240451987
 21
9.538142199001086
 31
0.0
  0
ENDBLK
  5
F54
330
F4B
100
AcDbEntity
  8
0
100
AcDbBlockEnd
  0
BLOCK
  5
E49
330
E45
100
AcDbEntity
  8
0
100
AcDbBlockBegin
  2
_OPEN
 70
     0
 10
0.0
 20
0.0
 30
0.0
  3
_OPEN
  1

  0
LINE
  5
E46
330
E45
100
AcDbEntity
  8
0
  6
ByBlock
 62
     0
100
AcDbLine
 10
-1.0
 20
0.166667
 30
0.0
 11
0.0
 21
0.0
 31
0.0
  0
LINE
  5
E47
330
E45
100
AcDbEntity
  8
0
  6
ByBlock
 62
     0
100
AcDbLine
 10
0.0
 20
0.0
 30
0.0
 11
-1.0
 21
-0.166667
 31
0.0
  0
LINE
  5
E48
330
E45
100
AcDbEntity
  8
0
  6
ByBlock
 62
     0
100
AcDbLine
 10
0.0
 20
0.0
 30
0.0
 11
-1.0
 21
0.0
 31
0.0
  0
ENDBLK
  5
E4A
330
E45
100
AcDbEntity
  8
0
100
AcDbBlockEnd
  0
BLOCK
  5
18B8
330
18B7
100
AcDbEntity
  8
0
100
AcDbBlockBegin
  2
_OPEN30
 70
     0
 10
0.0
 20
0.0
 30
0.0
  3
_OPEN30
  1

  0
LINE
  5
18B9
330
18B7
100
AcDbEntity
  8
0
  6
ByBlock
 62
     0
100
AcDbLine
 10
-1.0
 20
0.267949
 30
0.0
 11
0.0
 21
0.0
 31
0.0
  0
LINE
  5
18BA
330
18B7
100
AcDbEntity
  8
0
  6
ByBlock
 62
     0
100
AcDbLine
 10
0.0
 20
0.0
 30
0.0
 11
-1.0
 21
-0.267949
 31
0.0
  0
LINE
  5
18BB
330
18B7
100
AcDbEntity
  8
0
  6
ByBlock
 62
     0
100
AcDbLine
 10
0.0
 20
0.0
 30
0.0
 11
-1.0
 21
0.0
 31
0.0
  0
ENDBLK
  5
18BC
330
18B7
100
AcDbEntity
  8
0
100
AcDbBlockEnd
  0
ENDSEC
  0
SECTION
  2
ENTITIES
  0
LINE
  5
1624
330
2
100
AcDbEntity
  8
L-TYUSIN
 48
0.5
100
AcDbLine
 10
1203.267106511705
 20
1284.396847091288
 30
0.0
 11
1025.767136511704
 21
1284.396827091288
 31
0.0
  0
LINE
  5
1626
330
2
100
AcDbEntity
  8
L-ZISSEN
100
AcDbLine
 10
1111.267106511704
 20
1299.929855680279
 30
0.0
 11
1135.234097922713
 21
1323.896847091288
 31
0.0
  0
LINE
  5
1627
330
2
100
AcDbEntity
  8
L-ZISSEN
 48
5.0
100
AcDbLine
 10
1175.767082624007
 20
1236.396847091288
 30
0.0
 11
1125.767082624007
 21
1236.396847091288
 31
0.0
  0
LINE
  5
1628
330
2
100
AcDbEntity
  8
L-ZISSEN
 48
0.5
100
AcDbLine
 10
1175.767082624007
 20
1209.396847091288
 30
0.0
 11
1125.767082624006
 21
1209.396847091288
 31
0.0
  0
LINE
  5
1629
330
2
100
AcDbEntity
  8
L-ZISSEN
100
AcDbLine
 10
1135.234097922713
 20
1244.896847091288
 30
0.0
 11
1111.267106511704
 21
1268.863838502297
 31
0.0
  0
LINE
  5
162B
330
2
100
AcDbEntity
  8
L-ZISSEN
 48
5.0
100
AcDbLine
 10
1125.767082624006
 20
1209.396847091288
 30
0.0
 11
1125.767082624006
 21
1236.396847091288
 31
0.0
  0
LINE
  5
162C
330
2
100
AcDbEntity
  8
L-ZISSEN
100
AcDbLine
 10
1030.767136511704
 20
1302.396827091288
 30
0.0
 11
1035.734146511704
 21
1302.396827091288
 31
0.0
  0
LINE
  5
162D
330
2
100
AcDbEntity
  8
L-ZISSEN
100
AcDbLine
 10
1033.757136511704
 20
1303.248097091288
 30
0.0
 11
1054.405876511704
 21
1323.896837091288
 31
0.0
  0
LINE
  5
162E
330
2
100
AcDbEntity
  8
L-ZISSEN
100
AcDbLine
 10
1030.767136511704
 20
1266.396847091288
 30
0.0
 11
1035.734106511704
 21
1266.396847091288
 31
0.0
  0
LINE
  5
162F
330
2
100
AcDbEntity
  8
L-ZISSEN
100
AcDbLine
 10
1054.405726511704
 20
1244.896837091288
 30
0.0
 11
1033.757256511704
 21
1265.545327091288
 31
0.0
  0
LINE
  5
1630
330
2
100
AcDbEntity
  8
L-ZISSEN
100
AcDbLine
 10
1030.767136511704
 20
1306.396827091288
 30
0.0
 11
1030.767136511704
 21
1262.396827091288
 31
0.0
  0
LINE
  5
1631
330
2
100
AcDbEntity
  8
L-ZISSEN
100
AcDbLine
 10
1032.611256511704
 20
1262.396837091288
 30
0.0
 11
1034.067186511704
 21
1266.396857091288
 31
0.0
  0
LINE
  5
1632
330
2
100
AcDbEntity
  8
L-ZISSEN
100
AcDbLine
 10
1032.611266511704
 20
1262.396827091288
 30
0.0
 11
1030.767136511704
 21
1262.396827091288
 31
0.0
  0
LINE
  5
1633
330
2
100
AcDbEntity
  8
L-ZISSEN
100
AcDbLine
 10
1034.066966511704
 20
1302.396827091288
 30
0.0
 11
1032.611066511704
 21
1306.396827091288
 31
0.0
  0
LINE
  5
1634
330
2
100
AcDbEntity
  8
L-ZISSEN
100
AcDbLine
 10
1030.767136511704
 20
1306.396827091288
 30
0.0
 11
1032.611066511704
 21
1306.396827091288
 31
0.0
  0
LINE
  5
1635
330
2
100
AcDbEntity
  8
L-ZISSEN
100
AcDbLine
 10
1110.767106511704
 20
1302.396847091288
 30
0.0
 11
1110.767106511704
 21
1266.396847091288
 31
0.0
  0
LINE
  5
1636
330
2
100
AcDbEntity
  8
L-ZISSEN
100
AcDbLine
 10
1111.267106511704
 20
1268.863838502297
 30
0.0
 11
1111.267106511704
 21
1299.929855680279
 31
0.0
  0
LINE
  5
1637
330
2
100
AcDbEntity
  8
L-TYUSIN
 48
0.5
100
AcDbLine
 10
1070.767226511704
 20
1328.896827091288
 30
0.0
 11
1070.767136511704
 21
1236.896847091288
 31
0.0
  0
LINE
  5
1638
330
2
100
AcDbEntity
  8
L-ZISSEN
100
AcDbLine
 10
1055.234116511704
 20
1246.896847091288
 30
0.0
 11
1086.300136511704
 21
1246.896847091288
 31
0.0
  0
LINE
  5
1639
330
2
100
AcDbEntity
  8
L-ZISSEN
100
AcDbLine
 10
1054.405726511704
 20
1244.896827091288
 30
0.0
 11
1087.128496511704
 21
1244.896827091288
 31
0.0
  0
LINE
  5
163A
330
2
100
AcDbEntity
  8
L-ZISSEN
100
AcDbLine
 10
1035.734106511704
 20
1266.396847091288
 30
0.0
 11
1055.234116511704
 21
1246.896847091288
 31
0.0
  0
LINE
  5
163B
330
2
100
AcDbEntity
  8
L-ZISSEN
100
AcDbLine
 10
1064.267136511704
 20
1241.896847091288
 30
0.0
 11
1077.267136511704
 21
1241.896847091288
 31
0.0
  0
LINE
  5
163C
330
2
100
AcDbEntity
  8
L-ZISSEN
100
AcDbLine
 10
1064.267136511704
 20
1244.896827091288
 30
0.0
 11
1064.267136511704
 21
1241.896847091288
 31
0.0
  0
LINE
  5
163D
330
2
100
AcDbEntity
  8
L-ZISSEN
100
AcDbLine
 10
1077.267136511704
 20
1244.896827091288
 30
0.0
 11
1077.267136511704
 21
1241.896847091288
 31
0.0
  0
LINE
  5
163E
330
2
100
AcDbEntity
  8
L-ZISSEN
100
AcDbLine
 10
1087.128506511704
 20
1244.896827091288
 30
0.0
 11
1108.628526511704
 21
1266.396847091288
 31
0.0
  0
LINE
  5
163F
330
2
100
AcDbEntity
  8
L-ZISSEN
100
AcDbLine
 10
1086.300136511704
 20
1246.896847091288
 30
0.0
 11
1105.800146511704
 21
1266.396847091288
 31
0.0
  0
LINE
  5
1640
330
2
100
AcDbEntity
  8
L-ZISSEN
100
AcDbLine
 10
1120.734097922713
 20
1259.396847091288
 30
0.0
 11
1101.628526511704
 21
1259.396847091288
 31
0.0
  0
LINE
  5
1641
330
2
100
AcDbEntity
  8
L-ZISSEN
100
AcDbLine
 10
1105.800146511704
 20
1266.396847091288
 30
0.0
 11
1113.734097922713
 21
1266.396847091288
 31
0.0
  0
LINE
  5
1642
330
2
100
AcDbEntity
  8
L-ZISSEN
100
AcDbLine
 10
1087.128586511704
 20
1323.896827091288
 30
0.0
 11
1054.405866511704
 21
1323.896827091288
 31
0.0
  0
LINE
  5
1643
330
2
100
AcDbEntity
  8
L-ZISSEN
100
AcDbLine
 10
1055.234146511704
 20
1321.896817091288
 30
0.0
 11
1086.300136511704
 21
1321.896817091288
 31
0.0
  0
LINE
  5
1644
330
2
100
AcDbEntity
  8
L-ZISSEN
100
AcDbLine
 10
1035.734146511704
 20
1302.396827091288
 30
0.0
 11
1055.234146511704
 21
1321.896817091288
 31
0.0
  0
LINE
  5
1645
330
2
100
AcDbEntity
  8
L-ZISSEN
100
AcDbLine
 10
1108.628566511705
 20
1302.396847091288
 30
0.0
 11
1087.128586511704
 21
1323.896827091288
 31
0.0
  0
LINE
  5
1646
330
2
100
AcDbEntity
  8
L-ZISSEN
100
AcDbLine
 10
1120.734097922713
 20
1309.396847091288
 30
0.0
 11
1101.628566511704
 21
1309.396847091288
 31
0.0
  0
LINE
  5
1647
330
2
100
AcDbEntity
  8
L-ZISSEN
100
AcDbLine
 10
1113.734097922713
 20
1302.396847091288
 30
0.0
 11
1105.800106511704
 21
1302.396827091288
 31
0.0
  0
LINE
  5
1648
330
2
100
AcDbEntity
  8
L-ZISSEN
100
AcDbLine
 10
1086.300136511704
 20
1321.896807091288
 30
0.0
 11
1105.800106511704
 21
1302.396827091288
 31
0.0
  0
LINE
  5
1649
330
2
100
AcDbEntity
  8
L-ZISSEN
 48
5.0
100
AcDbLine
 10
1175.767082624007
 20
1209.396847091288
 30
0.0
 11
1175.767082624007
 21
1236.396847091288
 31
0.0
  0
LINE
  5
164A
330
2
100
AcDbEntity
  8
L-TYUSIN
 48
0.5
100
AcDbLine
 10
1150.767082624006
 20
1204.396847091288
 30
0.0
 11
1150.767106511704
 21
1328.896847091288
 31
0.0
  0
LINE
  5
164B
330
2
100
AcDbEntity
  8
L-ZISSEN
100
AcDbLine
 10
1190.767106511704
 20
1292.296847091287
 30
0.0
 11
1190.767106511704
 21
1302.396847091288
 31
0.0
  0
LWPOLYLINE
  5
164C
330
2
100
AcDbEntity
  8
L-ZISSEN
100
AcDbPolyline
 90
        3
 70
     0
 43
0.0
 10
1166.300115100695
 20
1323.896847091288
 10
1190.267106511704
 20
1299.929855680279
 10
1190.267106511704
 20
1291.896847091288
  0
LINE
  5
1652
330
2
100
AcDbEntity
  8
L-ZISSEN
100
AcDbLine
 10
1203.267106511705
 20
1259.396847091288
 30
0.0
 11
1180.800115100695
 21
1259.396847091288
 31
0.0
  0
LINE
  5
1653
330
2
100
AcDbEntity
  8
L-ZISSEN
100
AcDbLine
 10
1190.267106511704
 20
1268.863838502297
 30
0.0
 11
1166.300115100695
 21
1244.896847091288
 31
0.0
  0
LINE
  5
1654
330
2
100
AcDbEntity
  8
L-ZISSEN
100
AcDbLine
 10
1166.300115100695
 20
1244.896847091288
 30
0.0
 11
1135.234097922713
 21
1244.896847091288
 31
0.0
  0
LINE
  5
1655
330
2
100
AcDbEntity
  8
L-ZISSEN
 48
5.0
100
AcDbLine
 10
1144.067082624006
 20
1236.396847091288
 30
0.0
 11
1144.067082624006
 21
1244.896847091288
 31
0.0
  0
LINE
  5
1656
330
2
100
AcDbEntity
  8
L-ZISSEN
 48
5.0
100
AcDbLine
 10
1158.067082624006
 20
1236.396847091288
 30
0.0
 11
1158.067082624006
 21
1244.896847091288
 31
0.0
  0
LINE
  5
1662
330
2
100
AcDbEntity
  8
L-ZISSEN
100
AcDbLine
 10
1194.267106511705
 20
1266.396847091288
 30
0.0
 11
1201.267106511704
 21
1259.396847091288
 31
0.0
  0
LINE
  5
166C
330
2
100
AcDbEntity
  8
L-ZISSEN
100
AcDbLine
 10
1194.267106511705
 20
1266.396847091288
 30
0.0
 11
1187.800115100695
 21
1266.396847091288
 31
0.0
  0
LINE
  5
166D
330
2
100
AcDbEntity
  8
L-ZISSEN
100
AcDbLine
 10
1190.767106511704
 20
1266.396847091288
 30
0.0
 11
1190.767106511704
 21
1276.496847091288
 31
0.0
  0
LINE
  5
166E
330
2
100
AcDbEntity
  8
L-ZISSEN
100
AcDbLine
 10
1190.267106511704
 20
1276.896847091288
 30
0.0
 11
1190.267106511704
 21
1268.863838502297
 31
0.0
  0
LINE
  5
1674
330
2
100
AcDbEntity
  8
L-ZISSEN
100
AcDbLine
 10
1203.267106511705
 20
1309.396847091288
 30
0.0
 11
1180.800115100695
 21
1309.396847091288
 31
0.0
  0
LINE
  5
1675
330
2
100
AcDbEntity
  8
L-ZISSEN
100
AcDbLine
 10
1135.234097922713
 20
1323.896847091288
 30
0.0
 11
1166.300115100695
 21
1323.896847091288
 31
0.0
  0
LINE
  5
1676
330
2
100
AcDbEntity
  8
L-ZISSEN
100
AcDbLine
 10
1194.267106511705
 20
1302.396847091288
 30
0.0
 11
1187.800115100695
 21
1302.396847091288
 31
0.0
  0
LINE
  5
1677
330
2
100
AcDbEntity
  8
L-ZISSEN
100
AcDbLine
 10
1194.267106511705
 20
1302.396847091288
 30
0.0
 11
1201.267106511705
 21
1309.396847091288
 31
0.0
  0
LINE
  5
167B
330
2
100
AcDbEntity
  8
L-ZISSEN
100
AcDbLine
 10
1203.267106511705
 20
1309.396847091288
 30
0.0
 11
1203.267106511705
 21
1292.296847091287
 31
0.0
  0
LINE
  5
167C
330
2
100
AcDbEntity
  8
L-ZISSEN
100
AcDbLine
 10
1203.267106511705
 20
1259.396847091288
 30
0.0
 11
1203.267106511705
 21
1276.496847091287
 31
0.0
  0
TEXT
  5
167E
330
2
100
AcDbEntity
  8
L-ZISSEN
100
AcDbText
 10
1222.543313381331
 20
1270.197313391831
 30
0.0
 40
4.5
  1
P.P
100
AcDbText
  0
LINE
  5
167F
330
2
100
AcDbEntity
  8
L-ZISSEN
100
AcDbLine
 10
1204.842404686589
 20
1283.164598877571
 30
0.0
 11
1218.543313381331
 21
1272.447313391831
 31
0.0
  0
LINE
  5
3C27
330
2
100
AcDbEntity
  8
L-ZISSEN
100
AcDbLine
 10
866.4021091251097
 20
850.3240076218955
 30
0.0
 11
866.4021091251097
 21
865.4279206218954
 31
0.0
  0
LINE
  5
3C28
330
2
100
AcDbEntity
  8
L-ZISSEN
100
AcDbLine
 10
866.4021091251097
 20
850.3240076218955
 30
0.0
 11
866.4021091251097
 21
865.4279206218954
 31
0.0
  0
LINE
  5
3C29
330
2
100
AcDbEntity
  8
L-ZISSEN
100
AcDbLine
 10
847.4021091251097
 20
865.4279206218954
 30
0.0
 11
847.4021091251097
 21
850.3240076218955
 31
0.0
  0
LINE
  5
3C2A
330
2
100
AcDbEntity
  8
L-ZISSEN
100
AcDbLine
 10
859.8521191251102
 20
845.8412506218953
 30
0.0
 11
853.9521191251097
 21
845.8412506218953
 31
0.0
  0
LINE
  5
3C2B
330
2
100
AcDbEntity
  8
L-ZISSEN
100
AcDbLine
 10
853.5521091251107
 20
847.3412506218953
 30
0.0
 11
860.2521291251096
 21
847.3412506218953
 31
0.0
  0
LINE
  5
3C2C
330
2
100
AcDbEntity
  8
L-ZISSEN
100
AcDbLine
 10
853.5520991251096
 20
849.4279356218955
 30
0.0
 11
860.25207912511
 21
849.4279356218955
 31
0.0
  0
LINE
  5
3C2D
330
2
100
AcDbEntity
  8
L-ZISSEN
100
AcDbLine
 10
860.2521291251096
 20
848.8412506218953
 30
0.0
 11
853.5521091251103
 21
848.8412506218953
 31
0.0
  0
LINE
  5
3C2E
330
2
100
AcDbEntity
  8
L-ZISSEN
100
AcDbLine
 10
853.9521191251097
 20
845.8412506218953
 30
0.0
 11
853.9521191251097
 21
847.3412506218953
 31
0.0
  0
LINE
  5
3C2F
330
2
100
AcDbEntity
  8
L-ZISSEN
100
AcDbLine
 10
853.5521091251107
 20
847.3412506218953
 30
0.0
 11
853.5521091251103
 21
848.8412506218953
 31
0.0
  0
LINE
  5
3C30
330
2
100
AcDbEntity
  8
L-ZISSEN
100
AcDbLine
 10
853.6133627725399
 20
849.4279356218955
 30
0.0
 11
853.9520791251098
 21
848.8412656218953
 31
0.0
  0
ARC
  5
3C31
330
2
100
AcDbEntity
  8
L-ZISSEN
100
AcDbCircle
 10
847.9021091251097
 20
850.3240076218955
 30
0.0
 40
0.5
100
AcDbArc
 50
179.9996454445946
 51
249.9998800000309
  0
LINE
  5
3C32
330
2
100
AcDbEntity
  8
L-ZISSEN
100
AcDbLine
 10
848.9021491251096
 20
849.4279816218954
 30
0.0
 11
847.7311091251099
 21
849.8542056218954
 31
0.0
  0
LINE
  5
3C33
330
2
100
AcDbEntity
  8
L-ZISSEN
100
AcDbLine
 10
853.5520991251096
 20
849.4279356218955
 30
0.0
 11
848.9021391251099
 21
849.4279356218955
 31
0.0
  0
LINE
  5
3C34
330
2
100
AcDbEntity
  8
L-ZISSEN
100
AcDbLine
 10
866.0730791251099
 20
849.8542056218954
 30
0.0
 11
864.9020591251101
 21
849.4279886218955
 31
0.0
  0
ARC
  5
3C35
330
2
100
AcDbEntity
  8
L-ZISSEN
100
AcDbCircle
 10
865.9021091251097
 20
850.3240076218955
 30
0.0
 40
0.5
100
AcDbArc
 50
290.0001600000174
 51
0.0003600000101787
  0
LINE
  5
3C36
330
2
100
AcDbEntity
  8
L-ZISSEN
100
AcDbLine
 10
860.19087547768
 20
849.4279356218955
 30
0.0
 11
859.8521591251101
 21
848.8412656218953
 31
0.0
  0
LINE
  5
3C37
330
2
100
AcDbEntity
  8
L-ZISSEN
100
AcDbLine
 10
859.8521191251102
 20
845.8412506218953
 30
0.0
 11
859.8521191251102
 21
847.3412506218953
 31
0.0
  0
LINE
  5
3C38
330
2
100
AcDbEntity
  8
L-ZISSEN
100
AcDbLine
 10
860.2521291251096
 20
847.3412506218953
 30
0.0
 11
860.2521291251096
 21
848.8412506218953
 31
0.0
  0
LINE
  5
3C39
330
2
100
AcDbEntity
  8
L-ZISSEN
100
AcDbLine
 10
864.9020891251103
 20
849.4279356218955
 30
0.0
 11
860.25207912511
 21
849.4279356218955
 31
0.0
  0
LINE
  5
3C3A
330
2
100
AcDbEntity
  8
L-ZISSEN
100
AcDbLine
 10
874.3103324653116
 20
890.4190771180382
 30
0.0
 11
874.3103324653121
 21
936.7694578016825
 31
0.0
  0
LINE
  5
3C3B
330
2
100
AcDbEntity
  8
L-ZISSEN
100
AcDbLine
 10
886.301055162541
 20
936.7694578016825
 30
0.0
 11
886.301055162541
 21
890.4190771180382
 31
0.0
  0
LINE
  5
3C3C
330
2
100
AcDbEntity
  8
L-ZISSEN
100
AcDbLine
 10
891.4692127923857
 20
970.6411356791688
 30
0.0
 11
890.6588201251101
 21
877.7772016218954
 31
0.0
  0
LINE
  5
3C3D
330
2
100
AcDbEntity
  8
L-ZISSEN
100
AcDbLine
 10
827.5031830876787
 20
936.7694578016825
 30
0.0
 11
827.5031830876787
 21
890.4190771180382
 31
0.0
  0
LINE
  5
3C3E
330
2
100
AcDbEntity
  8
L-ZISSEN
100
AcDbLine
 10
839.4939057849083
 20
890.4190771180382
 30
0.0
 11
839.4939057849078
 21
936.7694578016825
 31
0.0
  0
LINE
  5
3C3F
330
2
100
AcDbEntity
  8
L-ZISSEN
100
AcDbLine
 10
822.3350248274278
 20
970.6411356218954
 30
0.0
 11
823.14545112511
 21
877.7771136218954
 31
0.0
  0
LINE
  5
3C40
330
2
100
AcDbEntity
  8
L-ZISSEN
100
AcDbLine
 10
865.90211912511
 20
865.9279206218954
 30
0.0
 11
848.4021091251097
 21
865.9279206218954
 31
0.0
  0
LINE
  5
3C41
330
2
100
AcDbEntity
  8
L-ZISSEN
100
AcDbLine
 10
829.6672573797814
 20
867.1411675218957
 30
0.0
 11
884.1372273797814
 21
867.1411675218957
 31
0.0
  0
LINE
  5
3C42
330
2
100
AcDbEntity
  8
L-ZISSEN
100
AcDbLine
 10
827.5031830876787
 20
890.4190771180382
 30
0.0
 11
839.4939057849083
 21
890.4190771180382
 31
0.0
  0
ARC
  5
3C43
330
2
100
AcDbEntity
  8
L-ZISSEN
100
AcDbCircle
 10
828.1454191251096
 20
877.8207926218953
 30
0.0
 40
4.9999981
100
AcDbArc
 50
180.5000899999995
 51
195.0000200000004
  0
ARC
  5
3C44
330
2
100
AcDbEntity
  8
L-ZISSEN
100
AcDbCircle
 10
829.6672591251099
 20
872.1411656218953
 30
0.0
 40
4.9999981
100
AcDbArc
 50
195.0000299999994
 51
269.9999800000008
  0
LINE
  5
3C45
330
2
100
AcDbEntity
  8
L-ZISSEN
100
AcDbLine
 10
823.3157931251098
 20
876.5266826218955
 30
0.0
 11
824.8376431251099
 21
870.8470486218954
 31
0.0
  0
LINE
  5
3C46
330
2
100
AcDbEntity
  8
L-ZISSEN
100
AcDbLine
 10
847.4021091251097
 20
865.4279356218955
 30
0.0
 11
847.9021091251097
 21
865.9279356218955
 31
0.0
  0
LINE
  5
3C47
330
2
100
AcDbEntity
  8
L-ZISSEN
100
AcDbLine
 10
849.6855341079522
 20
867.1411616218953
 30
0.0
 11
849.6855341079518
 21
865.9279206218954
 31
0.0
  0
LINE
  5
3C48
330
2
100
AcDbEntity
  8
L-ZISSEN
100
AcDbLine
 10
848.4021091251097
 20
865.9279206218954
 30
0.0
 11
847.9021091251097
 21
865.9279206218954
 31
0.0
  0
LINE
  5
3C49
330
2
100
AcDbEntity
  8
L-ZISSEN
100
AcDbLine
 10
886.301055162541
 20
890.4190771180382
 30
0.0
 11
874.3103324653116
 21
890.4190771180382
 31
0.0
  0
LINE
  5
3C4A
330
2
100
AcDbEntity
  8
L-ZISSEN
100
AcDbLine
 10
865.9020891251103
 20
865.9279436218955
 30
0.0
 11
866.4020691251098
 21
865.4279506218953
 31
0.0
  0
LINE
  5
3C4B
330
2
100
AcDbEntity
  8
L-ZISSEN
100
AcDbLine
 10
864.1187041422677
 20
867.1411616218953
 30
0.0
 11
864.1187041422677
 21
865.9279206218954
 31
0.0
  0
ARC
  5
3C4C
330
2
100
AcDbEntity
  8
L-ZISSEN
100
AcDbCircle
 10
885.6589591251098
 20
877.8208536218955
 30
0.0
 40
4.9999981
100
AcDbArc
 50
344.9999900000005
 51
359.5001000000009
  0
ARC
  5
3C4D
330
2
100
AcDbEntity
  8
L-ZISSEN
100
AcDbCircle
 10
884.1372291251099
 20
872.1411656218953
 30
0.0
 40
4.9999981
100
AcDbArc
 50
269.9999800000008
 51
344.9999400000013
  0
LINE
  5
3C4E
330
2
100
AcDbEntity
  8
L-ZISSEN
100
AcDbLine
 10
890.48860912511
 20
876.5268206218954
 30
0.0
 11
888.9667391251095
 21
870.8471256218953
 31
0.0
  0
LINE
  5
3C4F
330
2
100
AcDbEntity
  8
L-ZISSEN
100
AcDbLine
 10
818.4022571251098
 20
970.6411356218954
 30
0.0
 11
895.4021191251098
 21
970.6411356818954
 31
0.0
  0
LINE
  5
3C50
330
2
100
AcDbEntity
  8
L-ZISSEN
100
AcDbLine
 10
817.3717591251102
 20
992.0813006218951
 30
0.0
 11
896.4319191251101
 21
992.0813006218951
 31
0.0
  0
LINE
  5
3C51
330
2
100
AcDbEntity
  8
L-ZISSEN
100
AcDbLine
 10
817.9002359878441
 20
974.6411356218954
 30
0.0
 11
895.9035322965668
 21
974.6411356218956
 31
0.0
  0
LINE
  5
3C52
330
2
100
AcDbEntity
  8
L-ZISSEN
100
AcDbLine
 10
839.4939057849078
 20
962.309464755477
 30
0.0
 11
827.5031830876787
 21
962.309464755477
 31
0.0
  0
LINE
  5
3C53
330
2
100
AcDbEntity
  8
L-ZISSEN
100
AcDbLine
 10
827.5031830876787
 20
942.4450162864711
 30
0.0
 11
839.4939057849083
 21
942.4450162864711
 31
0.0
  0
LINE
  5
3C54
330
2
100
AcDbEntity
  8
L-ZISSEN
100
AcDbLine
 10
839.4939057849078
 20
936.7694578016825
 30
0.0
 11
827.5031830876787
 21
936.7694578016825
 31
0.0
  0
LINE
  5
3C55
330
2
100
AcDbEntity
  8
L-ZISSEN
100
AcDbLine
 10
827.5031830876787
 20
962.309464755477
 30
0.0
 11
827.5031830876787
 21
942.4450162864711
 31
0.0
  0
LINE
  5
3C56
330
2
100
AcDbEntity
  8
L-ZISSEN
100
AcDbLine
 10
839.4939057849083
 20
942.4450162864711
 30
0.0
 11
839.4939057849078
 21
962.309464755477
 31
0.0
  0
LINE
  5
3C57
330
2
100
AcDbEntity
  8
L-ZISSEN
100
AcDbLine
 10
817.9002359878446
 20
974.6411356218954
 30
0.0
 11
817.3717591251102
 21
992.0813006218951
 31
0.0
  0
LINE
  5
3C58
330
2
100
AcDbEntity
  8
L-ZISSEN
100
AcDbLine
 10
818.4022571251098
 20
974.6411356218954
 30
0.0
 11
818.4022571251098
 21
970.6411356218954
 31
0.0
  0
LINE
  5
3C59
330
2
100
AcDbEntity
  8
L-ZISSEN
100
AcDbLine
 10
840.5406091251102
 20
992.0813006218951
 30
0.0
 11
840.5406091251102
 21
974.6411356218954
 31
0.0
  0
LINE
  5
3C5A
330
2
100
AcDbEntity
  8
L-ZISSEN
100
AcDbLine
 10
895.8289819040532
 20
974.6411356218954
 30
0.0
 11
898.9235211251097
 21
955.1029806218954
 31
0.0
  0
LINE
  5
3C5B
330
2
100
AcDbEntity
  8
L-ZISSEN
100
AcDbLine
 10
874.3103324653121
 20
962.309464755477
 30
0.0
 11
886.301055162541
 21
962.309464755477
 31
0.0
  0
LINE
  5
3C5C
330
2
100
AcDbEntity
  8
L-ZISSEN
100
AcDbLine
 10
886.301055162541
 20
942.4450162864711
 30
0.0
 11
874.3103324653116
 21
942.4450162864711
 31
0.0
  0
LINE
  5
3C5D
330
2
100
AcDbEntity
  8
L-ZISSEN
100
AcDbLine
 10
874.3103324653121
 20
936.7694578016825
 30
0.0
 11
886.301055162541
 21
936.7694578016825
 31
0.0
  0
LINE
  5
3C5E
330
2
100
AcDbEntity
  8
L-ZISSEN
100
AcDbLine
 10
874.3103324653116
 20
942.4450162864711
 30
0.0
 11
874.3103324653121
 21
962.309464755477
 31
0.0
  0
LINE
  5
3C5F
330
2
100
AcDbEntity
  8
L-ZISSEN
100
AcDbLine
 10
886.301055162541
 20
962.309464755477
 30
0.0
 11
886.301055162541
 21
942.4450162864711
 31
0.0
  0
LINE
  5
3C60
330
2
100
AcDbEntity
  8
L-ZISSEN
100
AcDbLine
 10
891.3413687201772
 20
955.9913196448039
 30
0.0
 11
895.50203912511
 21
952.3735576218954
 31
0.0
  0
LINE
  5
3C61
330
2
100
AcDbEntity
  8
L-ZISSEN
100
AcDbLine
 10
891.3448119224335
 20
956.3858806029479
 30
0.0
 11
895.6988891251102
 21
952.5999486218954
 31
0.0
  0
LINE
  5
3C62
330
2
100
AcDbEntity
  8
L-ZISSEN
100
AcDbLine
 10
901.81622512511
 20
952.8202866218954
 30
0.0
 11
902.0966971251099
 21
951.0494686218955
 31
0.0
  0
LINE
  5
3C63
330
2
100
AcDbEntity
  8
L-ZISSEN
100
AcDbLine
 10
897.5026024611888
 20
952.8847803629366
 30
0.0
 11
896.1396851251101
 21
952.2781826218953
 31
0.0
  0
LINE
  5
3C64
330
2
100
AcDbEntity
  8
L-ZISSEN
100
AcDbLine
 10
897.5026024611888
 20
952.8847803629366
 30
0.0
 11
898.4471231251099
 21
951.7183946218953
 31
0.0
  0
LINE
  5
3C65
330
2
100
AcDbEntity
  8
L-ZISSEN
100
AcDbLine
 10
897.4023001251097
 20
953.1685136218954
 30
0.0
 11
896.01769912511
 21
952.5522646218952
 31
0.0
  0
LINE
  5
3C66
330
2
100
AcDbEntity
  8
L-ZISSEN
100
AcDbLine
 10
898.7180051251097
 20
950.0081036218954
 30
0.0
 11
898.4471231251099
 21
951.7183986218953
 31
0.0
  0
ARC
  5
3C67
330
2
100
AcDbEntity
  8
L-ZISSEN
100
AcDbCircle
 10
895.89573912511
 20
952.8262856218954
 30
0.0
 40
0.29999995
100
AcDbArc
 50
228.9918900000274
 51
293.9930699999879
  0
ARC
  5
3C68
330
2
100
AcDbEntity
  8
L-ZISSEN
100
AcDbCircle
 10
895.89573912511
 20
952.8262856218954
 30
0.0
 40
0.5999999
100
AcDbArc
 50
228.9918900000202
 51
293.9930699999835
  0
ARC
  5
3C69
330
2
100
AcDbEntity
  8
L-ZISSEN
100
AcDbCircle
 10
901.6028621251097
 20
950.9712136218953
 30
0.0
 40
0.5
100
AcDbArc
 50
279.0001099999836
 51
9.000039999998506
  0
LINE
  5
3C6A
330
2
100
AcDbEntity
  8
L-ZISSEN
100
AcDbLine
 10
901.68107112511
 20
950.4774066218953
 30
0.0
 11
898.7180051251097
 21
950.0081036218954
 31
0.0
  0
LINE
  5
3C6B
330
2
100
AcDbEntity
  8
L-ZISSEN
100
AcDbLine
 10
897.5242871251102
 20
952.8944316218953
 30
0.0
 11
897.4023001251097
 21
953.1685136218954
 31
0.0
  0
ARC
  5
3C6C
330
2
100
AcDbEntity
  8
L-ZISSEN
100
AcDbCircle
 10
901.3224051251099
 20
952.7420416218953
 30
0.0
 40
0.5
100
AcDbArc
 50
9.000039999998506
 51
53.99999999998813
  0
LINE
  5
3C6D
330
2
100
AcDbEntity
  8
L-ZISSEN
100
AcDbLine
 10
901.6162821251099
 20
953.1466016218952
 30
0.0
 11
898.9235371251101
 21
955.1029946218954
 31
0.0
  0
LINE
  5
3C6E
330
2
100
AcDbEntity
  8
L-ZISSEN
100
AcDbLine
 10
873.2636191251099
 20
992.0813006218951
 30
0.0
 11
873.2636191251099
 21
974.6411356218954
 31
0.0
  0
LINE
  5
3C6F
330
2
100
AcDbEntity
  8
L-ZISSEN
100
AcDbLine
 10
895.9035322965668
 20
974.6411356218956
 30
0.0
 11
896.4320191251098
 21
992.0813006218951
 31
0.0
  0
LINE
  5
3C70
330
2
100
AcDbEntity
  8
L-ZISSEN
100
AcDbLine
 10
895.4021191251098
 20
974.6411356218954
 30
0.0
 11
895.4021191251098
 21
970.6411356818954
 31
0.0
  0
LINE
  5
3C71
330
2
100
AcDbEntity
  8
L-ZISSEN
100
AcDbLine
 10
819.40211912511
 20
1060.781250621895
 30
0.0
 11
894.4021191251098
 21
1060.781250621895
 31
0.0
  0
LINE
  5
3C72
330
2
100
AcDbEntity
  8
L-ZISSEN
100
AcDbLine
 10
895.9019432160575
 20
1054.581250621895
 30
0.0
 11
817.9022950341625
 21
1054.581250621895
 31
0.0
  0
LINE
  5
3C73
330
2
100
AcDbEntity
  8
L-ZISSEN
100
AcDbLine
 10
819.40211912511
 20
1060.781250621895
 30
0.0
 11
819.40211912511
 21
1054.581250621895
 31
0.0
  0
LINE
  5
3C74
330
2
100
AcDbEntity
  8
L-ZISSEN
100
AcDbLine
 10
840.5405741251102
 20
1037.081240621895
 30
0.0
 11
840.5405741251102
 21
1054.581250621895
 31
0.0
  0
LINE
  5
3C75
330
2
100
AcDbEntity
  8
L-ZISSEN
100
AcDbLine
 10
873.2634141251101
 20
1037.081240621895
 30
0.0
 11
873.2634141251101
 21
1054.581220621895
 31
0.0
  0
LINE
  5
3C76
330
2
100
AcDbEntity
  8
L-ZISSEN
100
AcDbLine
 10
894.4021191251098
 20
1060.781250621895
 30
0.0
 11
894.4021191251098
 21
1054.581250621895
 31
0.0
  0
LINE
  5
3C77
330
2
100
AcDbEntity
  8
L-ZISSEN
100
AcDbLine
 10
1080.267391228201
 20
865.4279206218952
 30
0.0
 11
1080.267391228201
 21
850.3240076218952
 31
0.0
  0
LINE
  5
3C78
330
2
100
AcDbEntity
  8
L-ZISSEN
100
AcDbLine
 10
1061.267391228201
 20
850.3240076218952
 30
0.0
 11
1061.267391228201
 21
865.4279206218952
 31
0.0
  0
LINE
  5
3C79
330
2
100
AcDbEntity
  8
L-ZISSEN
100
AcDbLine
 10
1061.267391228201
 20
850.3240076218952
 30
0.0
 11
1061.267391228201
 21
865.4279206218952
 31
0.0
  0
LINE
  5
3C7A
330
2
100
AcDbEntity
  8
L-TYUSIN
 48
0.5
100
AcDbLine
 10
1070.767258804782
 20
1042.081234121897
 30
0.0
 11
1070.767257973529
 21
840.590113802472
 31
-0.3006617853809416
  0
LINE
  5
3C7B
330
2
100
AcDbEntity
  8
L-ZISSEN
100
AcDbLine
 10
1062.767441228201
 20
849.4279886218952
 30
0.0
 11
1078.767351228201
 21
849.4279816218951
 31
0.0
  0
LINE
  5
3C7C
330
2
100
AcDbEntity
  8
L-ZISSEN
100
AcDbLine
 10
1074.11726797353
 20
847.3412506218953
 30
0.0
 11
1067.417247973529
 21
847.3412506218953
 31
0.0
  0
LINE
  5
3C7D
330
2
100
AcDbEntity
  8
L-ZISSEN
100
AcDbLine
 10
1074.11726797353
 20
848.8412506218953
 30
0.0
 11
1067.41724797353
 21
848.8412506218953
 31
0.0
  0
LINE
  5
3C7E
330
2
100
AcDbEntity
  8
L-ZISSEN
100
AcDbLine
 10
1067.81725797353
 20
845.8412506218953
 30
0.0
 11
1073.71725797353
 21
845.8412506218953
 31
0.0
  0
LINE
  5
3C7F
330
2
100
AcDbEntity
  8
L-ZISSEN
100
AcDbLine
 10
1067.47850162096
 20
849.4279356218952
 30
0.0
 11
1067.81721797353
 21
848.8412656218951
 31
0.0
  0
LINE
  5
3C80
330
2
100
AcDbEntity
  8
L-ZISSEN
100
AcDbLine
 10
1067.417247973529
 20
847.3412506218953
 30
0.0
 11
1067.41724797353
 21
848.8412506218953
 31
0.0
  0
LINE
  5
3C81
330
2
100
AcDbEntity
  8
L-ZISSEN
100
AcDbLine
 10
1067.81725797353
 20
845.8412506218953
 30
0.0
 11
1067.81725797353
 21
847.3412506218953
 31
0.0
  0
ARC
  5
3C82
330
2
100
AcDbEntity
  8
L-ZISSEN
100
AcDbCircle
 10
1061.767391228201
 20
850.3240076218952
 30
0.0
 40
0.5
100
AcDbArc
 50
179.9996399999898
 51
249.9998399999826
  0
LINE
  5
3C83
330
2
100
AcDbEntity
  8
L-ZISSEN
100
AcDbLine
 10
1061.596421228201
 20
849.8542056218952
 30
0.0
 11
1062.767441228201
 21
849.4279886218952
 31
0.0
  0
ARC
  5
3C84
330
2
100
AcDbEntity
  8
L-ZISSEN
100
AcDbCircle
 10
1079.767391228201
 20
850.3240076218952
 30
0.0
 40
0.5
100
AcDbArc
 50
290.0001200000225
 51
0.0003545554053815
  0
LINE
  5
3C85
330
2
100
AcDbEntity
  8
L-ZISSEN
100
AcDbLine
 10
1078.767351228201
 20
849.4279816218951
 30
0.0
 11
1079.938391228201
 21
849.8542056218952
 31
0.0
  0
LINE
  5
3C86
330
2
100
AcDbEntity
  8
L-ZISSEN
100
AcDbLine
 10
1074.11726797353
 20
847.3412506218953
 30
0.0
 11
1074.11726797353
 21
848.8412506218953
 31
0.0
  0
LINE
  5
3C87
330
2
100
AcDbEntity
  8
L-ZISSEN
100
AcDbLine
 10
1073.71725797353
 20
845.8412506218953
 30
0.0
 11
1073.71725797353
 21
847.3412506218953
 31
0.0
  0
LINE
  5
3C88
330
2
100
AcDbEntity
  8
L-ZISSEN
100
AcDbLine
 10
1074.0560143261
 20
849.4279356218952
 30
0.0
 11
1073.71729797353
 21
848.8412656218951
 31
0.0
  0
LINE
  5
3C89
330
2
100
AcDbEntity
  8
L-ZISSEN
100
AcDbLine
 10
1113.26709797353
 20
1060.781244621895
 30
0.0
 11
1188.26709797353
 21
1060.781244621895
 31
0.0
  0
LINE
  5
3C8A
330
2
100
AcDbEntity
  8
L-ZISSEN
100
AcDbLine
 10
1139.869919319942
 20
989.5812946218954
 30
0.0
 11
1129.76717297353
 21
989.5812946218954
 31
0.0
  0
LINE
  5
3C8B
330
2
100
AcDbEntity
  8
L-ZISSEN
100
AcDbLine
 10
1131.76722297353
 20
980.1333946218953
 30
0.0
 11
1134.973018671021
 21
979.5812102673498
 31
0.0
  0
LINE
  5
3C8C
330
2
100
AcDbEntity
  8
L-ZISSEN
100
AcDbLine
 10
1171.72361297353
 20
987.0812846218952
 30
0.0
 11
1129.81081297353
 21
987.0812846218952
 31
0.0
  0
LINE
  5
3C8D
330
2
100
AcDbEntity
  8
L-ZISSEN
100
AcDbLine
 10
1030.76727797353
 20
1037.081230621895
 30
0.0
 11
1190.76714797353
 21
1037.081244621897
 31
0.0
  0
CIRCLE
  5
3C8E
330
2
100
AcDbEntity
  8
L-ZISSEN
 48
5.0
100
AcDbCircle
 10
1150.76720797353
 20
1012.081274621895
 30
0.0
 40
25.0
  0
LINE
  5
3C8F
330
2
100
AcDbEntity
  8
L-ZISSEN
100
AcDbLine
 10
1123.26723797353
 20
1036.581250621895
 30
0.0
 11
1123.26723797353
 21
992.5812506218953
 31
0.0
  0
LINE
  5
3C90
330
2
100
AcDbEntity
  8
L-ZISSEN
100
AcDbLine
 10
1097.30024656252
 20
1036.581250621895
 30
0.0
 11
1097.30024656252
 21
992.5812506218953
 31
0.0
  0
LINE
  5
3C91
330
2
100
AcDbEntity
  8
L-ZISSEN
100
AcDbLine
 10
1030.76727797353
 20
1037.081230621895
 30
0.0
 11
1030.76727797353
 21
992.0812806218952
 31
0.0
  0
LINE
  5
3C92
330
2
100
AcDbEntity
  8
L-ZISSEN
100
AcDbLine
 10
1041.81726797353
 20
1037.081230621895
 30
0.0
 11
1041.81726797353
 21
992.0812806218952
 31
0.0
  0
CIRCLE
  5
3C93
330
2
100
AcDbEntity
  8
L-ZISSEN
100
AcDbCircle
 10
1110.76723797353
 20
998.5812506218953
 30
0.0
 40
3.5
  0
LINE
  5
3C94
330
2
100
AcDbEntity
  8
L-ZISSEN
100
AcDbLine
 10
1135.767199973533
 20
992.0812806218952
 30
0.0
 11
1030.76727797353
 21
992.0812806218952
 31
0.0
  0
LINE
  5
3C95
330
2
100
AcDbEntity
  8
L-ZISSEN
100
AcDbLine
 10
1032.267257973529
 20
970.6411356218952
 30
0.0
 11
1064.267257973529
 21
970.6411356218952
 31
0.0
  0
LINE
  5
3C96
330
2
100
AcDbEntity
  8
L-ZISSEN
100
AcDbLine
 10
1031.765874870455
 20
974.6411356218952
 30
0.0
 11
1031.23740797353
 21
992.0813006218953
 31
0.0
  0
LINE
  5
3C97
330
2
100
AcDbEntity
  8
L-ZISSEN
100
AcDbLine
 10
1032.267257973529
 20
974.6411356218952
 30
0.0
 11
1032.267257973529
 21
970.6411356218952
 31
0.0
  0
LINE
  5
3C98
330
2
100
AcDbEntity
  8
L-ZISSEN
100
AcDbLine
 10
1105.334475525883
 20
970.6411356218952
 30
0.0
 11
1104.524049228201
 21
877.7771136218952
 31
0.0
  0
LINE
  5
3C99
330
2
100
AcDbEntity
  8
L-ZISSEN
100
AcDbLine
 10
1036.200287561424
 20
970.6411356218952
 30
0.0
 11
1037.010680228201
 21
877.7772016218952
 31
0.0
  0
LINE
  5
3C9A
330
2
100
AcDbEntity
  8
L-ZISSEN
100
AcDbLine
 10
1041.36844519077
 20
936.7694578016823
 30
0.0
 11
1041.36844519077
 21
890.419077118038
 31
0.0
  0
LINE
  5
3C9B
330
2
100
AcDbEntity
  8
L-ZISSEN
100
AcDbLine
 10
1088.175594568403
 20
890.419077118038
 30
0.0
 11
1088.175594568403
 21
936.7694578016823
 31
0.0
  0
LINE
  5
3C9C
330
2
100
AcDbEntity
  8
L-ZISSEN
100
AcDbLine
 10
1053.359167887999
 20
890.419077118038
 30
0.0
 11
1053.359167887999
 21
936.7694578016823
 31
0.0
  0
LINE
  5
3C9D
330
2
100
AcDbEntity
  8
L-ZISSEN
100
AcDbLine
 10
1100.166317265632
 20
936.7694578016823
 30
0.0
 11
1100.166317265632
 21
890.419077118038
 31
0.0
  0
LINE
  5
3C9E
330
2
100
AcDbEntity
  8
L-ZISSEN
100
AcDbLine
 10
1043.532272973529
 20
867.1411675218957
 30
0.0
 11
1098.00224297353
 21
867.1411675218957
 31
0.0
  0
ARC
  5
3C9F
330
2
100
AcDbEntity
  8
L-ZISSEN
100
AcDbCircle
 10
1042.010541228201
 20
877.8208536218953
 30
0.0
 40
4.9999981
100
AcDbArc
 50
180.4998999999991
 51
195.0000099999995
  0
ARC
  5
3CA0
330
2
100
AcDbEntity
  8
L-ZISSEN
100
AcDbCircle
 10
1043.532271228201
 20
872.1411656218953
 30
0.0
 40
4.9999981
100
AcDbArc
 50
195.0000599999986
 51
270.0000199999992
  0
LINE
  5
3CA1
330
2
100
AcDbEntity
  8
L-ZISSEN
100
AcDbLine
 10
1037.180891228201
 20
876.5268206218951
 30
0.0
 11
1038.702761228201
 21
870.8471256218951
 31
0.0
  0
LINE
  5
3CA2
330
2
100
AcDbEntity
  8
L-ZISSEN
100
AcDbLine
 10
1041.36844519077
 20
890.419077118038
 30
0.0
 11
1053.359167887999
 21
890.419077118038
 31
0.0
  0
LINE
  5
3CA3
330
2
100
AcDbEntity
  8
L-ZISSEN
100
AcDbLine
 10
1061.767381228201
 20
865.9279206218952
 30
0.0
 11
1079.767406228201
 21
865.9279206218952
 31
0.0
  0
LINE
  5
3CA4
330
2
100
AcDbEntity
  8
L-ZISSEN
100
AcDbLine
 10
1061.767411228201
 20
865.9279436218952
 30
0.0
 11
1061.267431228201
 21
865.4279506218951
 31
0.0
  0
LINE
  5
3CA5
330
2
100
AcDbEntity
  8
L-ZISSEN
100
AcDbLine
 10
1063.550796211043
 20
867.1411616218953
 30
0.0
 11
1063.550796211043
 21
865.9279206218952
 31
0.0
  0
LINE
  5
3CA6
330
2
100
AcDbEntity
  8
L-ZISSEN
100
AcDbLine
 10
1080.267391228201
 20
865.4279356218952
 30
0.0
 11
1079.767391228201
 21
865.9279356218952
 31
0.0
  0
LINE
  5
3CA7
330
2
100
AcDbEntity
  8
L-ZISSEN
100
AcDbLine
 10
1077.983966245359
 20
867.1411616218953
 30
0.0
 11
1077.983966245359
 21
865.9279206218952
 31
0.0
  0
ARC
  5
3CA8
330
2
100
AcDbEntity
  8
L-ZISSEN
100
AcDbCircle
 10
1099.524081228201
 20
877.8207926218953
 30
0.0
 40
4.9999981
100
AcDbArc
 50
344.9999800000002
 51
359.4999100000005
  0
ARC
  5
3CA9
330
2
100
AcDbEntity
  8
L-ZISSEN
100
AcDbCircle
 10
1098.002241228201
 20
872.1411656218953
 30
0.0
 40
4.9999981
100
AcDbArc
 50
270.0000199999992
 51
344.9999699999999
  0
LINE
  5
3CAA
330
2
100
AcDbEntity
  8
L-ZISSEN
100
AcDbLine
 10
1104.353707228201
 20
876.5266826218952
 30
0.0
 11
1102.831857228201
 21
870.8470486218952
 31
0.0
  0
LINE
  5
3CAB
330
2
100
AcDbEntity
  8
L-ZISSEN
100
AcDbLine
 10
1100.166317265632
 20
890.419077118038
 30
0.0
 11
1088.175594568403
 21
890.419077118038
 31
0.0
  0
LINE
  5
3CAC
330
2
100
AcDbEntity
  8
L-ZISSEN
100
AcDbLine
 10
1109.267119973529
 20
970.6411356218952
 30
0.0
 11
1077.267257973529
 21
970.6411356218952
 31
0.0
  0
LINE
  5
3CAD
330
2
100
AcDbEntity
  8
L-ZISSEN
100
AcDbLine
 10
1077.267257973529
 20
974.6411356218952
 30
0.0
 11
1077.267257973529
 21
950.0081186218953
 31
0.0
  0
LINE
  5
3CAE
330
2
100
AcDbEntity
  8
L-ZISSEN
100
AcDbLine
 10
1064.267257973529
 20
974.6411356218952
 30
0.0
 11
1064.267257973529
 21
950.0081186218953
 31
0.0
  0
LINE
  5
3CAF
330
2
100
AcDbEntity
  8
L-ZISSEN
100
AcDbLine
 10
1053.359167887999
 20
942.4450162864708
 30
0.0
 11
1053.359167887999
 21
962.3094647554768
 31
0.0
  0
LINE
  5
3CB0
330
2
100
AcDbEntity
  8
L-ZISSEN
100
AcDbLine
 10
1041.36844519077
 20
962.3094647554768
 30
0.0
 11
1041.36844519077
 21
942.4450162864708
 31
0.0
  0
LINE
  5
3CB1
330
2
100
AcDbEntity
  8
L-ZISSEN
100
AcDbLine
 10
1041.36844519077
 20
942.4450162864708
 30
0.0
 11
1053.359167887999
 21
942.4450162864708
 31
0.0
  0
LINE
  5
3CB2
330
2
100
AcDbEntity
  8
L-ZISSEN
100
AcDbLine
 10
1053.359167887999
 20
936.7694578016823
 30
0.0
 11
1041.36844519077
 21
936.7694578016823
 31
0.0
  0
LINE
  5
3CB3
330
2
100
AcDbEntity
  8
L-ZISSEN
100
AcDbLine
 10
1053.359167887999
 20
962.3094647554768
 30
0.0
 11
1041.36844519077
 21
962.3094647554768
 31
0.0
  0
LINE
  5
3CB4
330
2
100
AcDbEntity
  8
L-ZISSEN
100
AcDbLine
 10
1077.267257973529
 20
950.0081186218953
 30
0.0
 11
1064.267257973529
 21
950.0081186218953
 31
0.0
  0
LINE
  5
3CB5
330
2
100
AcDbEntity
  8
L-ZISSEN
100
AcDbLine
 10
1100.166317265632
 20
962.3094647554768
 30
0.0
 11
1100.166317265632
 21
942.4450162864708
 31
0.0
  0
LINE
  5
3CB6
330
2
100
AcDbEntity
  8
L-ZISSEN
100
AcDbLine
 10
1088.175594568403
 20
942.4450162864708
 30
0.0
 11
1088.175594568403
 21
962.3094647554768
 31
0.0
  0
LINE
  5
3CB7
330
2
100
AcDbEntity
  8
L-ZISSEN
100
AcDbLine
 10
1100.166317265632
 20
942.4450162864708
 30
0.0
 11
1088.175594568403
 21
942.4450162864708
 31
0.0
  0
LINE
  5
3CB8
330
2
100
AcDbEntity
  8
L-ZISSEN
100
AcDbLine
 10
1088.175594568403
 20
936.7694578016823
 30
0.0
 11
1100.166317265632
 21
936.7694578016823
 31
0.0
  0
LINE
  5
3CB9
330
2
100
AcDbEntity
  8
L-ZISSEN
100
AcDbLine
 10
1088.175594568403
 20
962.3094647554768
 30
0.0
 11
1100.166317265632
 21
962.3094647554768
 31
0.0
  0
LINE
  5
3CBA
330
2
100
AcDbEntity
  8
L-ZISSEN
100
AcDbLine
 10
1123.26723797353
 20
992.5812506218953
 30
0.0
 11
1097.30024656252
 21
992.5812506218953
 31
0.0
  0
LINE
  5
3CBB
330
2
100
AcDbEntity
  8
L-ZISSEN
100
AcDbLine
 10
1131.76722297353
 20
987.0812846218952
 30
0.0
 11
1131.76722297353
 21
980.1333946218953
 31
0.0
  0
LINE
  5
3CBC
330
2
100
AcDbEntity
  8
L-ZISSEN
100
AcDbLine
 10
1128.76721797353
 20
1000.206914007534
 30
0.0
 11
1128.76721797353
 21
992.0812466559606
 31
0.0
  0
LINE
  5
3CBD
330
2
100
AcDbEntity
  8
L-ZISSEN
100
AcDbLine
 10
1129.72353297353
 20
992.0813246218953
 30
0.0
 11
1129.81081297353
 21
987.0812846218952
 31
0.0
  0
LINE
  5
3CBE
330
2
100
AcDbEntity
  8
L-TYUSIN
 48
0.5
100
AcDbLine
 10
1025.76727797353
 20
1014.581258621895
 30
0.0
 11
1203.26723797353
 21
1014.581250621895
 31
0.0
  0
TEXT
  5
3CBF
330
2
100
AcDbEntity
  8
L-ZISSEN
100
AcDbText
 10
966.8168146082124
 20
1051.195998849063
 30
0.0
 40
4.5
  1
AIR IN
100
AcDbText
  0
TEXT
  5
3CC0
330
2
100
AcDbEntity
  8
L-ZISSEN
100
AcDbText
 10
967.6405774245703
 20
1041.870659382614
 30
0.0
 40
4.5
  1
Rc3/8
100
AcDbText
  0
LINE
  5
3CC1
330
2
100
AcDbEntity
  8
L-ZISSEN
100
AcDbLine
 10
995.4119389735296
 20
1049.936597621895
 30
0.0
 11
965.4119389735296
 21
1049.936597621895
 31
0.0
  0
LINE
  5
3CC2
330
2
100
AcDbEntity
  8
L-ZISSEN
100
AcDbLine
 10
1027.58529745819
 20
1017.763239137235
 30
0.0
 11
995.4119389735296
 21
1049.936597621895
 31
0.0
  0
INSERT
  5
3CC3
330
2
100
AcDbEntity
  8
L-ZISSEN
100
AcDbBlockReference
  2
_OPEN
 10
1030.76727797353
 20
1014.581258621895
 30
0.0
 41
4.5
 42
4.5
 43
4.5
 50
315.0
  0
CIRCLE
  5
3CC4
330
2
100
AcDbEntity
  8
L-ZISSEN
100
AcDbCircle
 10
1110.76723797353
 20
1030.581250621895
 30
0.0
 40
3.5
  0
LINE
  5
3CC5
330
2
100
AcDbEntity
  8
L-ZISSEN
100
AcDbLine
 10
1123.26723797353
 20
1036.581250621895
 30
0.0
 11
1097.30024656252
 21
1036.581250621895
 31
0.0
  0
LINE
  5
3CC6
330
2
100
AcDbEntity
  8
L-ZISSEN
100
AcDbLine
 10
1113.26709797353
 20
1060.781244621895
 30
0.0
 11
1113.26709797353
 21
1054.581244621895
 31
0.0
  0
CIRCLE
  5
3CC7
330
2
100
AcDbEntity
  8
L-ZISSEN
100
AcDbCircle
 10
1190.76723797353
 20
998.5812506218953
 30
0.0
 40
3.5
  0
LINE
  5
3CC8
330
2
100
AcDbEntity
  8
L-ZISSEN
100
AcDbLine
 10
1177.300246562521
 20
1036.581250621895
 30
0.0
 11
1177.300246562521
 21
992.5812506218953
 31
0.0
  0
LINE
  5
3CC9
330
2
100
AcDbEntity
  8
L-ZISSEN
100
AcDbLine
 10
1158.504267773976
 20
999.6751595336215
 30
0.0
 11
1142.847367357313
 21
1024.780472598871
 31
0.0
  0
LINE
  5
3CCA
330
2
100
AcDbEntity
  8
L-ZISSEN
100
AcDbLine
 10
1203.26723797353
 20
1036.581250621895
 30
0.0
 11
1203.26723797353
 21
992.5812506218953
 31
0.0
  0
LINE
  5
3CCB
330
2
100
AcDbEntity
  8
L-ZISSEN
100
AcDbLine
 10
1190.267157733975
 20
992.0812466559609
 30
0.0
 11
1165.767170685545
 21
992.0812466559609
 31
0.0
  0
LINE
  5
3CCC
330
2
100
AcDbEntity
  8
L-ZISSEN
100
AcDbLine
 10
1203.26723797353
 20
992.5812506218953
 30
0.0
 11
1177.300246562521
 21
992.5812506218953
 31
0.0
  0
LINE
  5
3CCD
330
2
100
AcDbEntity
  8
L-ZISSEN
100
AcDbLine
 10
1166.561347276038
 20
979.5812102673498
 30
0.0
 11
1134.979534660246
 21
979.5812846218952
 31
0.0
  0
LINE
  5
3CCE
330
2
100
AcDbEntity
  8
L-ZISSEN
100
AcDbLine
 10
1169.76714297353
 20
987.0812746218954
 30
0.0
 11
1169.76714297353
 21
980.1333946218953
 31
0.0
  0
LINE
  5
3CCF
330
2
100
AcDbEntity
  8
L-ZISSEN
100
AcDbLine
 10
1169.76714297353
 20
980.1333946218953
 30
0.0
 11
1166.561347276038
 21
979.5812102673498
 31
0.0
  0
LINE
  5
3CD0
330
2
100
AcDbEntity
  8
L-ZISSEN
100
AcDbLine
 10
1171.76724297353
 20
989.5812946218954
 30
0.0
 11
1161.664496627117
 21
989.5812946218954
 31
0.0
  0
LINE
  5
3CD1
330
2
100
AcDbEntity
  8
L-ZISSEN
100
AcDbLine
 10
1172.76721797353
 20
1000.206951062218
 30
0.0
 11
1172.76721797353
 21
992.0812466559606
 31
0.0
  0
LINE
  5
3CD2
330
2
100
AcDbEntity
  8
L-ZISSEN
100
AcDbLine
 10
1171.81086297353
 20
992.0812046218954
 30
0.0
 11
1171.72362297353
 21
987.0812846218952
 31
0.0
  0
ARC
  5
3CD3
330
2
100
AcDbEntity
  8
L-ZISSEN
100
AcDbCircle
 10
1190.267157891054
 20
992.5812465959608
 30
0.0
 40
0.49999994
100
AcDbArc
 50
269.9999819999857
 51
359.9999600000042
  0
LINE
  5
3CD4
330
2
100
AcDbEntity
  8
L-ZISSEN
100
AcDbLine
 10
1160.66709797353
 20
1078.981244621895
 30
0.0
 11
1160.66709797353
 21
1060.781244621895
 31
0.0
  0
LINE
  5
3CD5
330
2
100
AcDbEntity
  8
L-ZISSEN
100
AcDbLine
 10
1187.66709797353
 20
1078.981244621895
 30
0.0
 11
1187.66709797353
 21
1060.781244621895
 31
0.0
  0
LINE
  5
3CD6
330
2
100
AcDbEntity
  8
L-TYUSIN
 48
0.5
100
AcDbLine
 10
1140.76709797353
 20
1055.781244621895
 30
0.0
 11
1140.76709797353
 21
1133.145244621896
 31
0.0
  0
LINE
  5
3CD7
330
2
100
AcDbEntity
  8
L-ZISSEN
100
AcDbLine
 10
1203.26723797353
 20
1036.581250621895
 30
0.0
 11
1177.300246562521
 21
1036.581250621895
 31
0.0
  0
LINE
  5
3CD8
330
2
100
AcDbEntity
  8
L-ZISSEN
100
AcDbLine
 10
1166.76718797353
 20
1031.290663992711
 30
0.0
 11
1166.76718797353
 21
1037.081244621895
 31
0.0
  0
LINE
  5
3CD9
330
2
100
AcDbEntity
  8
L-ZISSEN
100
AcDbLine
 10
1134.76721797353
 20
1031.290655663457
 30
0.0
 11
1134.76721797353
 21
1037.081244621895
 31
0.0
  0
LINE
  5
3CDA
330
2
100
AcDbEntity
  8
L-ZISSEN
100
AcDbLine
 10
1134.90585297353
 20
1037.081244621895
 30
0.0
 11
1134.90585297353
 21
1054.581224621895
 31
0.0
  0
LINE
  5
3CDB
330
2
100
AcDbEntity
  8
L-ZISSEN
100
AcDbLine
 10
1166.62869297353
 20
1037.081244621895
 30
0.0
 11
1166.62869297353
 21
1054.581254621895
 31
0.0
  0
CIRCLE
  5
3CDC
330
2
100
AcDbEntity
  8
L-ZISSEN
100
AcDbCircle
 10
1190.76723797353
 20
1030.581250621895
 30
0.0
 40
3.5
  0
LINE
  5
3CDD
330
2
100
AcDbEntity
  8
L-ZISSEN
100
AcDbLine
 10
1190.76714797353
 20
1036.581250621895
 30
0.0
 11
1190.76714797353
 21
1037.081244621897
 31
0.0
  0
LINE
  5
3CDE
330
2
100
AcDbEntity
  8
L-ZISSEN
100
AcDbLine
 10
1188.26709797353
 20
1060.781244621895
 30
0.0
 11
1188.26709797353
 21
1054.581244621895
 31
0.0
  0
LINE
  5
3CDF
330
2
100
AcDbEntity
  8
L-ZISSEN
100
AcDbLine
 10
1165.66709797353
 20
1107.981244621895
 30
0.0
 11
1185.667097973531
 21
1107.981244621895
 31
0.0
  0
LINE
  5
3CE0
330
2
100
AcDbEntity
  8
L-ZISSEN
100
AcDbLine
 10
1187.66709797353
 20
1078.981244621895
 30
0.0
 11
1160.66709797353
 21
1078.981244621895
 31
0.0
  0
LINE
  5
3CE1
330
2
100
AcDbEntity
  8
L-ZISSEN
100
AcDbLine
 10
1187.66709797353
 20
1075.981244621895
 30
0.0
 11
1160.66709797353
 21
1075.981244621895
 31
0.0
  0
LINE
  5
3CE2
330
2
100
AcDbEntity
  8
L-ZISSEN
100
AcDbLine
 10
1163.66709797353
 20
1105.981244621895
 30
0.0
 11
1187.66709797353
 21
1105.981244621895
 31
0.0
  0
LINE
  5
3CE3
330
2
100
AcDbEntity
  8
L-ZISSEN
100
AcDbLine
 10
1163.66709797353
 20
1103.981244621895
 30
0.0
 11
1163.66709797353
 21
1105.981244621895
 31
0.0
  0
LINE
  5
3CE4
330
2
100
AcDbEntity
  8
L-ZISSEN
100
AcDbLine
 10
1163.66709797353
 20
1078.981244621895
 30
0.0
 11
1163.66709797353
 21
1103.981244621895
 31
0.0
  0
LINE
  5
3CE5
330
2
100
AcDbEntity
  8
L-ZISSEN
100
AcDbLine
 10
1163.66709797353
 20
1105.981244621895
 30
0.0
 11
1165.66709797353
 21
1107.981244621895
 31
0.0
  0
LINE
  5
3CE6
330
2
100
AcDbEntity
  8
L-ZISSEN
100
AcDbLine
 10
1201.66709797353
 20
1114.826544083516
 30
0.0
 11
1201.66709797353
 21
1103.126544083516
 31
0.0
  0
LINE
  5
3CE7
330
2
100
AcDbEntity
  8
L-TYUSIN
 48
0.5
100
AcDbLine
 10
1209.16709797353
 20
1130.326544083516
 30
0.0
 11
1209.16709797353
 21
1098.126544083516
 31
0.0
  0
LINE
  5
3CE8
330
2
100
AcDbEntity
  8
L-ZISSEN
100
AcDbLine
 10
1216.66709797353
 20
1114.826544083516
 30
0.0
 11
1216.66709797353
 21
1103.126544083516
 31
0.0
  0
LINE
  5
3CE9
330
2
100
AcDbEntity
  8
L-ZISSEN
100
AcDbLine
 10
1187.66709797353
 20
1103.981244621895
 30
0.0
 11
1187.66709797353
 21
1105.981244621895
 31
0.0
  0
LINE
  5
3CEA
330
2
100
AcDbEntity
  8
L-ZISSEN
100
AcDbLine
 10
1190.66709797353
 20
1103.126544083516
 30
0.0
 11
1216.66709797353
 21
1103.126544083516
 31
0.0
  0
LINE
  5
3CEB
330
2
100
AcDbEntity
  8
L-ZISSEN
100
AcDbLine
 10
1216.16709797353
 20
1087.326544083516
 30
0.0
 11
1190.66709797353
 21
1087.326544083516
 31
0.0
  0
LINE
  5
3CEC
330
2
100
AcDbEntity
  8
L-ZISSEN
100
AcDbLine
 10
1187.66709797353
 20
1086.481244621895
 30
0.0
 11
1189.66709797353
 21
1088.481244621895
 31
0.0
  0
LINE
  5
3CED
330
2
100
AcDbEntity
  8
L-ZISSEN
100
AcDbLine
 10
1187.66709797353
 20
1078.981244621895
 30
0.0
 11
1187.66709797353
 21
1103.981244621895
 31
0.0
  0
LINE
  5
3CEE
330
2
100
AcDbEntity
  8
L-ZISSEN
100
AcDbLine
 10
1190.66709797353
 20
1087.726544083516
 30
0.0
 11
1189.66709797353
 21
1087.726544083516
 31
0.0
  0
LINE
  5
3CEF
330
2
100
AcDbEntity
  8
L-ZISSEN
100
AcDbLine
 10
1187.66709797353
 20
1103.981244621895
 30
0.0
 11
1189.66709797353
 21
1102.826544083516
 31
0.0
  0
LINE
  5
3CF0
330
2
100
AcDbEntity
  8
L-ZISSEN
100
AcDbLine
 10
1190.66709797353
 20
1102.726544083516
 30
0.0
 11
1189.66709797353
 21
1102.726544083516
 31
0.0
  0
LINE
  5
3CF1
330
2
100
AcDbEntity
  8
L-ZISSEN
100
AcDbLine
 10
1190.66709797353
 20
1087.326544083516
 30
0.0
 11
1190.66709797353
 21
1103.126544083516
 31
0.0
  0
LINE
  5
3CF2
330
2
100
AcDbEntity
  8
L-ZISSEN
100
AcDbLine
 10
1189.66709797353
 20
1087.726544083516
 30
0.0
 11
1189.66709797353
 21
1102.726544083516
 31
0.0
  0
LINE
  5
3CF3
330
2
100
AcDbEntity
  8
L-ZISSEN
100
AcDbLine
 10
1190.66709797353
 20
1087.726544083516
 30
0.0
 11
1190.66709797353
 21
1102.726544083516
 31
0.0
  0
ARC
  5
3CF4
330
2
100
AcDbEntity
  8
L-ZISSEN
100
AcDbCircle
 10
1216.16709797353
 20
1087.826544083516
 30
0.0
 40
0.5
100
AcDbArc
 50
270.0
 51
0.0
  0
LINE
  5
3CF5
330
2
100
AcDbEntity
  8
L-ZISSEN
100
AcDbLine
 10
1216.66709797353
 20
1087.826544083516
 30
0.0
 11
1216.66709797353
 21
1103.126544083516
 31
0.0
  0
LINE
  5
3CF6
330
2
100
AcDbEntity
  8
L-ZISSEN
100
AcDbLine
 10
1216.172651472995
 20
1125.326544083516
 30
0.0
 11
1202.161544474065
 21
1125.326544083516
 31
0.0
  0
LINE
  5
3CF7
330
2
100
AcDbEntity
  8
L-ZISSEN
100
AcDbLine
 10
1201.661544474065
 20
1120.826544083516
 30
0.0
 11
1216.672651472995
 21
1120.826544083516
 31
0.0
  0
LINE
  5
3CF8
330
2
100
AcDbEntity
  8
L-ZISSEN
100
AcDbLine
 10
1216.16709797353
 20
1115.326544083516
 30
0.0
 11
1202.16709797353
 21
1115.326544083516
 31
0.0
  0
LINE
  5
3CF9
330
2
100
AcDbEntity
  8
L-ZISSEN
100
AcDbLine
 10
1201.661544474065
 20
1124.826544083516
 30
0.0
 11
1201.661544474065
 21
1120.826544083516
 31
0.0
  0
LINE
  5
3CFA
330
2
100
AcDbEntity
  8
L-ZISSEN
100
AcDbLine
 10
1205.414321223797
 20
1125.326544083516
 30
0.0
 11
1205.414321223797
 21
1120.826544083516
 31
0.0
  0
LINE
  5
3CFB
330
2
100
AcDbEntity
  8
L-ZISSEN
100
AcDbLine
 10
1187.667097973531
 20
1105.981244621895
 30
0.0
 11
1185.667097973531
 21
1107.981244621895
 31
0.0
  0
LINE
  5
3CFC
330
2
100
AcDbEntity
  8
L-ZISSEN
100
AcDbLine
 10
1202.86709680914
 20
1120.826544083516
 30
0.0
 11
1202.86709680914
 21
1115.326544083516
 31
0.0
  0
ARC
  5
3CFD
330
2
100
AcDbEntity
  8
L-ZISSEN
100
AcDbCircle
 10
1202.16709797353
 20
1114.826544083516
 30
0.0
 40
0.5
100
AcDbArc
 50
90.0
 51
180.0
  0
ARC
  5
3CFE
330
2
100
AcDbEntity
  8
L-ZISSEN
100
AcDbCircle
 10
1202.161544474065
 20
1124.826544083516
 30
0.0
 40
0.5
100
AcDbArc
 50
90.0
 51
180.0
  0
LINE
  5
3CFF
330
2
100
AcDbEntity
  8
L-ZISSEN
100
AcDbLine
 10
1212.919874723263
 20
1125.326544083516
 30
0.0
 11
1212.919874723263
 21
1120.826544083516
 31
0.0
  0
LINE
  5
3D00
330
2
100
AcDbEntity
  8
L-ZISSEN
100
AcDbLine
 10
1216.672651472995
 20
1124.826544083516
 30
0.0
 11
1216.672651472995
 21
1120.826544083516
 31
0.0
  0
ARC
  5
3D01
330
2
100
AcDbEntity
  8
L-ZISSEN
100
AcDbCircle
 10
1216.16709797353
 20
1114.826544083516
 30
0.0
 40
0.5
100
AcDbArc
 50
0.0
 51
90.0
  0
LINE
  5
3D02
330
2
100
AcDbEntity
  8
L-ZISSEN
100
AcDbLine
 10
1215.46709680914
 20
1120.826544083516
 30
0.0
 11
1215.46709680914
 21
1115.326544083516
 31
0.0
  0
ARC
  5
3D03
330
2
100
AcDbEntity
  8
L-ZISSEN
100
AcDbCircle
 10
1216.172651472995
 20
1124.826544083516
 30
0.0
 40
0.5
100
AcDbArc
 50
0.0
 51
90.0
  0
SOLID
  5
3D04
330
2
100
AcDbEntity
  8
L-ZISSEN
100
AcDbTrace
 10
1204.637161446127
 20
1013.086452712364
 30
0.0
 11
1205.0479108507
 21
1013.611552103992
 31
0.0
 12
1203.26723797353
 22
1014.581250621895
 32
0.0
 13
1203.26723797353
 23
1014.581250621895
 33
0.0
  0
TEXT
  5
3D05
330
2
100
AcDbEntity
  8
L-ZISSEN
100
AcDbText
 10
1222.543444843156
 20
1000.381716922438
 30
0.0
 40
4.5
  1
P.P
100
AcDbText
  0
LINE
  5
3D06
330
2
100
AcDbEntity
  8
L-ZISSEN
100
AcDbLine
 10
1204.842536148414
 20
1013.349002408178
 30
0.0
 11
1218.543444843156
 21
1002.631716922438
 31
0.0
  0
LINE
  5
3D07
330
2
100
AcDbEntity
  8
L-ZISSEN
100
AcDbLine
 10
893.5093671251101
 20
1002.596678621895
 30
0.0
 11
893.5093751251101
 21
1031.565822621895
 31
0.0
  0
LINE
  5
3D08
330
2
100
AcDbEntity
  8
L-ZISSEN
100
AcDbLine
 10
894.0093711251101
 20
1007.081250621895
 30
0.0
 11
894.0093751251101
 21
1027.081242621895
 31
0.0
  0
LINE
  5
3D09
330
2
100
AcDbEntity
  8
L-ZISSEN
100
AcDbLine
 10
894.4021171251101
 20
1037.081240621895
 30
0.0
 11
894.4021171251101
 21
1032.658597621895
 31
0.0
  0
LINE
  5
3D0A
330
2
100
AcDbEntity
  8
L-ZISSEN
100
AcDbLine
 10
893.5093711251101
 20
1007.081250621895
 30
0.0
 11
894.0093711251101
 21
1007.081250621895
 31
0.0
  0
ARC
  5
3D0B
330
2
100
AcDbEntity
  8
L-ZISSEN
100
AcDbCircle
 10
893.4021171251101
 20
1032.658597621895
 30
0.0
 40
1.0
100
AcDbArc
 50
299.9999700000038
 51
0.0000200000020129
  0
LINE
  5
3D0C
330
2
100
AcDbEntity
  8
L-ZISSEN
100
AcDbLine
 10
893.9021131251101
 20
1031.792569621895
 30
0.0
 11
893.5093751251101
 21
1031.565822621895
 31
0.0
  0
LINE
  5
3D0D
330
2
100
AcDbEntity
  8
L-ZISSEN
100
AcDbLine
 10
874.90211912511
 20
1037.081240621895
 30
0.0
 11
874.90211912511
 21
1024.081250621895
 31
0.0
  0
LINE
  5
3D0E
330
2
100
AcDbEntity
  8
L-ZISSEN
100
AcDbLine
 10
821.1006991251102
 20
1031.100581621895
 30
0.0
 11
821.1006991251102
 21
1003.061924621895
 31
0.0
  0
LINE
  5
3D0F
330
2
100
AcDbEntity
  8
L-ZISSEN
100
AcDbLine
 10
838.90211912511
 20
1037.081240621895
 30
0.0
 11
838.90211912511
 21
1024.081250621895
 31
0.0
  0
LINE
  5
3D10
330
2
100
AcDbEntity
  8
L-ZISSEN
100
AcDbLine
 10
819.4021171251102
 20
1037.081240621895
 30
0.0
 11
819.4021171251102
 21
1032.658597621896
 31
0.0
  0
ARC
  5
3D11
330
2
100
AcDbEntity
  8
L-ZISSEN
100
AcDbCircle
 10
820.4021171251102
 20
1032.658597621896
 30
0.0
 40
1.0
100
AcDbArc
 50
180.0
 51
239.9999899999968
  0
LINE
  5
3D12
330
2
100
AcDbEntity
  8
L-ZISSEN
100
AcDbLine
 10
819.9021291251102
 20
1031.792576621895
 30
0.0
 11
821.1006991251102
 21
1031.100581621896
 31
0.0
  0
LINE
  5
3D13
330
2
100
AcDbEntity
  8
L-ZISSEN
100
AcDbLine
 10
838.90211912511
 20
992.0813006218951
 30
0.0
 11
838.90211912511
 21
1005.081250621895
 31
0.0
  0
LINE
  5
3D14
330
2
100
AcDbEntity
  8
L-ZISSEN
100
AcDbLine
 10
838.90211912511
 20
1005.081250621895
 30
0.0
 11
834.90211912511
 21
1006.581250621895
 31
0.0
  0
LINE
  5
3D15
330
2
100
AcDbEntity
  8
L-ZISSEN
100
AcDbLine
 10
834.90211912511
 20
1006.581250621895
 30
0.0
 11
834.90211912511
 21
1022.581250621895
 31
0.0
  0
LINE
  5
3D16
330
2
100
AcDbEntity
  8
L-ZISSEN
100
AcDbLine
 10
819.90213212511
 20
1002.369931621895
 30
0.0
 11
821.1006991251102
 21
1003.061924621895
 31
0.0
  0
LINE
  5
3D17
330
2
100
AcDbEntity
  8
L-ZISSEN
100
AcDbLine
 10
819.4021171251102
 20
1001.503903621895
 30
0.0
 11
819.4021171251102
 21
992.0812696218953
 31
0.0
  0
ARC
  5
3D18
330
2
100
AcDbEntity
  8
L-ZISSEN
100
AcDbCircle
 10
820.4021171251102
 20
1001.503903621895
 30
0.0
 40
1.0
100
AcDbArc
 50
120.0000670000209
 51
180.0
  0
ARC
  5
3D19
330
2
100
AcDbEntity
  8
L-ZISSEN
100
AcDbCircle
 10
820.4021171251102
 20
1001.503903621895
 30
0.0
 40
1.0
100
AcDbArc
 50
120.0000120000083
 51
180.0
  0
LINE
  5
3D1A
330
2
100
AcDbEntity
  8
L-ZISSEN
100
AcDbLine
 10
874.90211912511
 20
992.0813006218951
 30
0.0
 11
874.90211912511
 21
1005.081250621895
 31
0.0
  0
LINE
  5
3D1B
330
2
100
AcDbEntity
  8
L-ZISSEN
100
AcDbLine
 10
874.90211912511
 20
1005.081250621895
 30
0.0
 11
878.90211912511
 21
1006.581250621895
 31
0.0
  0
LINE
  5
3D1C
330
2
100
AcDbEntity
  8
L-ZISSEN
100
AcDbLine
 10
878.90211912511
 20
1006.581250621895
 30
0.0
 11
878.90211912511
 21
1022.581250621895
 31
0.0
  0
LINE
  5
3D1D
330
2
100
AcDbEntity
  8
L-ZISSEN
100
AcDbLine
 10
874.90211912511
 20
1024.081250621895
 30
0.0
 11
878.90211912511
 21
1022.581250621895
 31
0.0
  0
LINE
  5
3D1E
330
2
100
AcDbEntity
  8
L-ZISSEN
100
AcDbLine
 10
838.9020862159523
 20
1024.08126884235
 30
0.0
 11
834.9020846975845
 21
1022.581272891337
 31
0.0
  0
LINE
  5
3D1F
330
2
100
AcDbEntity
  8
L-ZISSEN
100
AcDbLine
 10
893.9018021868127
 20
1002.369010735066
 30
0.0000000000000001
 11
893.5093671251101
 21
1002.596678621895
 31
0.0
  0
LINE
  5
3D20
330
2
100
AcDbEntity
  8
L-ZISSEN
100
AcDbLine
 10
894.4017956321353
 20
1001.502970290489
 30
0.0000000000000001
 11
894.4015611127237
 21
992.0803362934076
 31
0.0000000000000001
  0
ARC
  5
3D21
330
2
100
AcDbEntity
  8
L-ZISSEN
100
AcDbCircle
 10
893.401795632445
 20
1001.502995179433
 30
0.0000000000000001
 40
1.0
100
AcDbArc
 50
359.9985739685433
 51
59.99850696854399
  0
ARC
  5
3D22
330
2
100
AcDbEntity
  8
L-ZISSEN
100
AcDbCircle
 10
893.401795632445
 20
1001.502995179433
 30
0.0000000000000001
 40
1.0
100
AcDbArc
 50
359.9985739685433
 51
59.9985619685304
  0
CIRCLE
  5
3D23
330
2
100
AcDbEntity
  8
L-ZISSEN
100
AcDbCircle
 10
856.90211912511
 20
1014.590113802472
 30
-0.2945277853809416
 40
8.65
  0
LINE
  5
3D24
330
2
100
AcDbEntity
  8
L-ZISSEN
100
AcDbLine
 10
870.65211912511
 20
1126.145250621896
 30
0.0
 11
870.65211912511
 21
1122.145250621896
 31
0.0
  0
LINE
  5
3D25
330
2
100
AcDbEntity
  8
L-ZISSEN
100
AcDbLine
 10
843.15211912511
 20
1126.145250621896
 30
0.0
 11
843.15211912511
 21
1122.145250621896
 31
0.0
  0
LINE
  5
3D26
330
2
100
AcDbEntity
  8
L-ZISSEN
100
AcDbLine
 10
837.90211912511
 20
1095.245250621895
 30
0.0
 11
875.90211912511
 21
1095.245250621895
 31
0.0
  0
LINE
  5
3D27
330
2
100
AcDbEntity
  8
L-ZISSEN
100
AcDbLine
 10
841.90211912511
 20
1108.145250621895
 30
0.0
 11
871.90211912511
 21
1108.145250621895
 31
0.0
  0
LINE
  5
3D28
330
2
100
AcDbEntity
  8
L-ZISSEN
100
AcDbLine
 10
837.90211912511
 20
1083.145250621895
 30
0.0
 11
875.90211912511
 21
1083.145250621895
 31
0.0
  0
LINE
  5
3D29
330
2
100
AcDbEntity
  8
L-ZISSEN
100
AcDbLine
 10
837.90211912511
 20
1083.145250621895
 30
0.0
 11
837.90211912511
 21
1095.245250621895
 31
0.0
  0
LINE
  5
3D2A
330
2
100
AcDbEntity
  8
L-ZISSEN
100
AcDbLine
 10
839.90211912511
 20
1060.781250621895
 30
0.0
 11
839.90211912511
 21
1080.645250621895
 31
0.0
  0
LINE
  5
3D2B
330
2
100
AcDbEntity
  8
L-ZISSEN
100
AcDbLine
 10
841.1021191251102
 20
1080.645250621895
 30
0.0
 11
841.1021191251102
 21
1083.145250621895
 31
0.0
  0
LINE
  5
3D2C
330
2
100
AcDbEntity
  8
L-ZISSEN
100
AcDbLine
 10
841.90211912511
 20
1095.245250621895
 30
0.0
 11
841.90211912511
 21
1108.145250621895
 31
0.0
  0
LINE
  5
3D2D
330
2
100
AcDbEntity
  8
L-ZISSEN
100
AcDbLine
 10
875.90211912511
 20
1083.145250621895
 30
0.0
 11
875.90211912511
 21
1095.245250621895
 31
0.0
  0
LINE
  5
3D2E
330
2
100
AcDbEntity
  8
L-ZISSEN
100
AcDbLine
 10
873.90211912511
 20
1060.781250621895
 30
0.0
 11
873.90211912511
 21
1080.645250621895
 31
0.0
  0
LINE
  5
3D2F
330
2
100
AcDbEntity
  8
L-ZISSEN
100
AcDbLine
 10
872.7021191251101
 20
1080.645250621895
 30
0.0
 11
872.7021191251101
 21
1083.145250621895
 31
0.0
  0
LINE
  5
3D30
330
2
100
AcDbEntity
  8
L-ZISSEN
100
AcDbLine
 10
871.90211912511
 20
1095.245250621895
 30
0.0
 11
871.90211912511
 21
1108.145250621895
 31
0.0
  0
LINE
  5
3D31
330
2
100
AcDbEntity
  8
L-ZISSEN
100
AcDbLine
 10
866.90211912511
 20
1108.145250621895
 30
0.0
 11
866.90211912511
 21
1109.945250621895
 31
0.0
  0
LINE
  5
3D32
330
2
100
AcDbEntity
  8
L-ZISSEN
100
AcDbLine
 10
870.15211912511
 20
1122.145250621896
 30
0.0
 11
870.15211912511
 21
1109.945250621895
 31
0.0
  0
LINE
  5
3D33
330
2
100
AcDbEntity
  8
L-ZISSEN
100
AcDbLine
 10
846.90211912511
 20
1108.145250621895
 30
0.0
 11
846.90211912511
 21
1109.945250621895
 31
0.0
  0
LINE
  5
3D34
330
2
100
AcDbEntity
  8
L-ZISSEN
100
AcDbLine
 10
843.65211912511
 20
1122.145250621896
 30
0.0
 11
843.65211912511
 21
1109.945250621895
 31
0.0
  0
LINE
  5
3D35
330
2
100
AcDbEntity
  8
L-ZISSEN
100
AcDbLine
 10
843.15211912511
 20
1122.145250621896
 30
0.0
 11
870.65211912511
 21
1122.145250621896
 31
0.0
  0
LINE
  5
3D36
330
2
100
AcDbEntity
  8
L-ZISSEN
100
AcDbLine
 10
843.65211912511
 20
1109.945250621895
 30
0.0
 11
870.15211912511
 21
1109.945250621895
 31
0.0
  0
LINE
  5
3D37
330
2
100
AcDbEntity
  8
L-ZISSEN
100
AcDbLine
 10
869.40211912511
 20
1126.145250621896
 30
0.0
 11
869.40211912511
 21
1128.145250621896
 31
0.0
  0
LINE
  5
3D38
330
2
100
AcDbEntity
  8
L-ZISSEN
100
AcDbLine
 10
844.40211912511
 20
1126.145250621896
 30
0.0
 11
844.40211912511
 21
1128.145250621896
 31
0.0
  0
LINE
  5
3D39
330
2
100
AcDbEntity
  8
L-ZISSEN
100
AcDbLine
 10
843.15211912511
 20
1126.145250621896
 30
0.0
 11
870.65211912511
 21
1126.145250621896
 31
0.0
  0
LINE
  5
3D3A
330
2
100
AcDbEntity
  8
L-ZISSEN
100
AcDbLine
 10
844.40211912511
 20
1128.145250621896
 30
0.0
 11
869.40211912511
 21
1128.145250621896
 31
0.0
  0
LINE
  5
3D3B
330
2
100
AcDbEntity
  8
L-ZISSEN
100
AcDbLine
 10
873.90211912511
 20
1080.645250621895
 30
0.0
 11
839.90211912511
 21
1080.645250621895
 31
0.0
  0
LINE
  5
3D3C
330
2
100
AcDbEntity
  8
L-ZISSEN
100
AcDbLine
 10
1154.51709797353
 20
1126.145244621896
 30
0.0
 11
1154.51709797353
 21
1122.145244621896
 31
0.0
  0
LINE
  5
3D3D
330
2
100
AcDbEntity
  8
L-ZISSEN
100
AcDbLine
 10
1127.01709797353
 20
1126.145244621896
 30
0.0
 11
1127.01709797353
 21
1122.145244621896
 31
0.0
  0
LINE
  5
3D3E
330
2
100
AcDbEntity
  8
L-ZISSEN
100
AcDbLine
 10
1121.76709797353
 20
1095.245244621895
 30
0.0
 11
1159.76709797353
 21
1095.245244621895
 31
0.0
  0
LINE
  5
3D3F
330
2
100
AcDbEntity
  8
L-ZISSEN
100
AcDbLine
 10
1125.76709797353
 20
1108.145244621895
 30
0.0
 11
1155.76709797353
 21
1108.145244621895
 31
0.0
  0
LINE
  5
3D40
330
2
100
AcDbEntity
  8
L-ZISSEN
100
AcDbLine
 10
1121.76709797353
 20
1083.145244621895
 30
0.0
 11
1159.76709797353
 21
1083.145244621895
 31
0.0
  0
LINE
  5
3D41
330
2
100
AcDbEntity
  8
L-ZISSEN
100
AcDbLine
 10
1121.76709797353
 20
1083.145244621895
 30
0.0
 11
1121.76709797353
 21
1095.245244621895
 31
0.0
  0
LINE
  5
3D42
330
2
100
AcDbEntity
  8
L-ZISSEN
100
AcDbLine
 10
1123.76709797353
 20
1060.781244621895
 30
0.0
 11
1123.76709797353
 21
1080.645244621895
 31
0.0
  0
LINE
  5
3D43
330
2
100
AcDbEntity
  8
L-ZISSEN
100
AcDbLine
 10
1124.96709797353
 20
1080.645244621895
 30
0.0
 11
1124.96709797353
 21
1083.145244621895
 31
0.0
  0
LINE
  5
3D44
330
2
100
AcDbEntity
  8
L-ZISSEN
100
AcDbLine
 10
1125.76709797353
 20
1095.245244621895
 30
0.0
 11
1125.76709797353
 21
1108.145244621895
 31
0.0
  0
LINE
  5
3D45
330
2
100
AcDbEntity
  8
L-ZISSEN
100
AcDbLine
 10
1159.76709797353
 20
1083.145244621895
 30
0.0
 11
1159.76709797353
 21
1095.245244621895
 31
0.0
  0
LINE
  5
3D46
330
2
100
AcDbEntity
  8
L-ZISSEN
100
AcDbLine
 10
1157.76709797353
 20
1060.781244621895
 30
0.0
 11
1157.76709797353
 21
1080.645244621895
 31
0.0
  0
LINE
  5
3D47
330
2
100
AcDbEntity
  8
L-ZISSEN
100
AcDbLine
 10
1156.56709797353
 20
1080.645244621895
 30
0.0
 11
1156.56709797353
 21
1083.145244621895
 31
0.0
  0
LINE
  5
3D48
330
2
100
AcDbEntity
  8
L-ZISSEN
100
AcDbLine
 10
1155.76709797353
 20
1095.245244621895
 30
0.0
 11
1155.76709797353
 21
1108.145244621895
 31
0.0
  0
LINE
  5
3D49
330
2
100
AcDbEntity
  8
L-ZISSEN
100
AcDbLine
 10
1150.76709797353
 20
1108.145244621895
 30
0.0
 11
1150.76709797353
 21
1109.945244621896
 31
0.0
  0
LINE
  5
3D4A
330
2
100
AcDbEntity
  8
L-ZISSEN
100
AcDbLine
 10
1154.01709797353
 20
1122.145244621896
 30
0.0
 11
1154.01709797353
 21
1109.945244621896
 31
0.0
  0
LINE
  5
3D4B
330
2
100
AcDbEntity
  8
L-ZISSEN
100
AcDbLine
 10
1130.76709797353
 20
1108.145244621895
 30
0.0
 11
1130.76709797353
 21
1109.945244621896
 31
0.0
  0
LINE
  5
3D4C
330
2
100
AcDbEntity
  8
L-ZISSEN
100
AcDbLine
 10
1127.51709797353
 20
1122.145244621896
 30
0.0
 11
1127.51709797353
 21
1109.945244621896
 31
0.0
  0
LINE
  5
3D4D
330
2
100
AcDbEntity
  8
L-ZISSEN
100
AcDbLine
 10
1127.01709797353
 20
1122.145244621896
 30
0.0
 11
1154.51709797353
 21
1122.145244621896
 31
0.0
  0
LINE
  5
3D4E
330
2
100
AcDbEntity
  8
L-ZISSEN
100
AcDbLine
 10
1127.51709797353
 20
1109.945244621896
 30
0.0
 11
1154.01709797353
 21
1109.945244621896
 31
0.0
  0
LINE
  5
3D4F
330
2
100
AcDbEntity
  8
L-ZISSEN
100
AcDbLine
 10
1153.26709797353
 20
1126.145244621896
 30
0.0
 11
1153.26709797353
 21
1128.145244621896
 31
0.0
  0
LINE
  5
3D50
330
2
100
AcDbEntity
  8
L-ZISSEN
100
AcDbLine
 10
1128.26709797353
 20
1126.145244621896
 30
0.0
 11
1128.26709797353
 21
1128.145244621896
 31
0.0
  0
LINE
  5
3D51
330
2
100
AcDbEntity
  8
L-ZISSEN
100
AcDbLine
 10
1127.01709797353
 20
1126.145244621896
 30
0.0
 11
1154.51709797353
 21
1126.145244621896
 31
0.0
  0
LINE
  5
3D52
330
2
100
AcDbEntity
  8
L-ZISSEN
100
AcDbLine
 10
1128.26709797353
 20
1128.145244621896
 30
0.0
 11
1153.26709797353
 21
1128.145244621896
 31
0.0
  0
LINE
  5
3D53
330
2
100
AcDbEntity
  8
L-ZISSEN
100
AcDbLine
 10
1157.76709797353
 20
1080.645244621895
 30
0.0
 11
1123.76709797353
 21
1080.645244621895
 31
0.0
  0
LINE
  5
3D54
330
2
100
AcDbEntity
  8
L-ZISSEN
100
AcDbLine
 10
817.3720141251101
 20
1037.081240621895
 30
0.0
 11
896.4322241251101
 21
1037.081240621895
 31
0.0
  0
LINE
  5
3D55
330
2
100
AcDbEntity
  8
L-ZISSEN
100
AcDbLine
 10
896.4322241251101
 20
1037.081240621895
 30
0.0
 11
895.9019432160575
 21
1054.581250621895
 31
0.0
  0
LINE
  5
3D56
330
2
100
AcDbEntity
  8
L-ZISSEN
100
AcDbLine
 10
817.3720141251101
 20
1037.081240621895
 30
0.0
 11
817.9022950341625
 21
1054.581250621895
 31
0.0
  0
LINE
  5
3D57
330
2
100
AcDbEntity
  8
L-ZISSEN
100
AcDbLine
 10
1031.765874870455
 20
974.6411356218952
 30
0.0
 11
1109.769121110796
 21
974.6411356218952
 31
0.0
  0
LINE
  5
3D58
330
2
100
AcDbEntity
  8
L-ZISSEN
100
AcDbLine
 10
1109.769121110795
 20
974.6411356218952
 30
0.0
 11
1110.29759797353
 21
992.0813006218953
 31
0.0
  0
LINE
  5
3D59
330
2
100
AcDbEntity
  8
L-ZISSEN
100
AcDbLine
 10
1109.267119973529
 20
974.6411356218952
 30
0.0
 11
1109.267119973529
 21
970.6411356218952
 31
0.0
  0
LINE
  5
3D5A
330
2
100
AcDbEntity
  8
L-ZISSEN
100
AcDbLine
 10
1111.237042762663
 20
1037.081237663006
 30
0.0
 11
1111.767323882582
 21
1054.581254621895
 31
0.0
  0
LINE
  5
3D5B
330
2
100
AcDbEntity
  8
L-ZISSEN
100
AcDbLine
 10
1190.297273277804
 20
1037.081244580782
 30
0.0
 11
1189.766973579586
 21
1054.581254621895
 31
0.0
  0
LINE
  5
3D5C
330
2
100
AcDbEntity
  8
L-ZISSEN
100
AcDbLine
 10
1111.767323882582
 20
1054.581254621895
 30
0.0
 11
1189.766973579586
 21
1054.581254621895
 31
0.0
  0
LINE
  5
3D5D
330
2
100
AcDbEntity
  8
L-TYUSIN
 48
0.5
100
AcDbLine
 10
856.90211912511
 20
1133.654078802472
 30
-0.2945277853809416
 11
856.90211912511
 21
840.590113802472
 31
-0.3006617853809416
  0
LINE
  5
3D5E
330
2
100
AcDbEntity
  8
L-TYUSIN
 48
0.5
100
AcDbLine
 10
870.55211912511
 20
1014.590113802472
 30
-0.2945277853809416
 11
843.2521191251101
 21
1014.590113802472
 31
-0.2945277853809416
  0
LINE
  5
3D5F
330
2
100
AcDbEntity
  8
L-TYUSIN
 48
0.5
100
AcDbLine
 10
1150.76709797353
 20
1065.781244621895
 30
0.0
 11
1150.770440968142
 21
974.3301106251993
 31
-0.3006617853809416
  0
LINE
  5
3D60
330
2
100
AcDbEntity
  8
L-ZISSEN
100
AcDbLine
 10
931.4021191251098
 20
991.5900528535375
 30
-0.2969675385425791
 11
931.4021191251098
 21
1042.590052853538
 31
-0.2969675385425791
  0
LINE
  5
3D61
330
2
100
AcDbEntity
  8
L-ZISSEN
100
AcDbLine
 10
931.4021191251098
 20
1042.590052853538
 30
-0.2969675385425791
 11
904.4021191251098
 21
1042.590052853538
 31
-0.2969675385425791
  0
LINE
  5
3D62
330
2
100
AcDbEntity
  8
L-ZISSEN
100
AcDbLine
 10
904.4021191251098
 20
1042.590052853538
 30
-0.2969675385425791
 11
904.4021191251098
 21
991.5900528535375
 31
-0.2969675385425791
  0
LINE
  5
3D63
330
2
100
AcDbEntity
  8
L-ZISSEN
100
AcDbLine
 10
904.4021191251098
 20
991.5900528535375
 30
-0.2969675385425791
 11
931.4021191251098
 21
991.5900528535375
 31
-0.2969675385425791
  0
LINE
  5
3D64
330
2
100
AcDbEntity
  8
L-ZISSEN
100
AcDbLine
 10
904.4021191251098
 20
1024.090052853538
 30
-0.2969675385425791
 11
894.0093745250991
 21
1024.090052332086
 31
-0.2945277853809416
  0
LINE
  5
3D65
330
2
100
AcDbEntity
  8
L-ZISSEN
100
AcDbLine
 10
894.0093717250978
 20
1010.090052332087
 30
-0.2945277853809416
 11
904.4021191251098
 21
1010.090052853537
 31
-0.2969675385425791
  0
LINE
  5
3D66
330
2
100
AcDbEntity
  8
L-ZISSEN
100
AcDbLine
 10
893.5093751251101
 20
1027.081242621895
 30
0.0
 11
894.0093751251101
 21
1027.081242621895
 31
0.0
  0
CIRCLE
  5
3D6A
330
2
100
AcDbEntity
  8
L-ZISSEN
100
AcDbCircle
 10
1140.76709797353
 20
1284.396841175793
 30
-0.0019821880853622
 40
15.0
  0
CIRCLE
  5
3D6B
330
2
100
AcDbEntity
  8
L-ZISSEN
100
AcDbCircle
 10
1140.76709797353
 20
1284.396841175793
 30
-0.0019821880853622
 40
13.5
  0
CIRCLE
  5
3D6C
330
2
100
AcDbEntity
  8
L-ZISSEN
100
AcDbCircle
 10
1140.76709797353
 20
1284.396841175793
 30
-0.0019821880853622
 40
11.5
  0
CIRCLE
  5
3D6D
330
2
100
AcDbEntity
  8
L-ZISSEN
100
AcDbCircle
 10
1140.76709797353
 20
1284.396841175793
 30
-0.0019821880853622
 40
19.0
  0
LINE
  5
3D6E
330
2
100
AcDbEntity
  8
L-TYUSIN
100
AcDbLine
 10
1140.76709797353
 20
1308.396841175793
 30
-0.0019821880853622
 11
1140.76709797353
 21
1260.396841175793
 31
-0.0019821880853622
  0
ARC
  5
3D6F
330
2
100
AcDbEntity
  8
L-ZISSEN
100
AcDbCircle
 10
1165.26709797353
 20
1279.896841175793
 30
0.0
 40
3.0
100
AcDbArc
 50
0.0
 51
90.0
  0
LINE
  5
3D70
330
2
100
AcDbEntity
  8
L-ZISSEN
100
AcDbLine
 10
1186.26709797353
 20
1275.396841175793
 30
0.0
 11
1159.26709797353
 21
1275.396841175793
 31
0.0
  0
LINE
  5
3D71
330
2
100
AcDbEntity
  8
L-ZISSEN
100
AcDbLine
 10
1186.26709797353
 20
1293.396841175793
 30
0.0
 11
1159.26709797353
 21
1293.396841175793
 31
0.0
  0
LINE
  5
3D72
330
2
100
AcDbEntity
  8
L-ZISSEN
100
AcDbLine
 10
1180.26709797353
 20
1289.896841175793
 30
0.0
 11
1164.26709797353
 21
1289.896841175793
 31
0.0
  0
LINE
  5
3D73
330
2
100
AcDbEntity
  8
L-ZISSEN
100
AcDbLine
 10
1188.26709797353
 20
1276.896841175793
 30
0.0
 11
1162.26709797353
 21
1276.896841175793
 31
0.0
  0
LINE
  5
3D74
330
2
100
AcDbEntity
  8
L-ZISSEN
100
AcDbLine
 10
1188.26709797353
 20
1291.896841175793
 30
0.0
 11
1162.26709797353
 21
1291.896841175793
 31
0.0
  0
CIRCLE
  5
3D75
330
2
100
AcDbEntity
  8
L-ZISSEN
100
AcDbCircle
 10
1165.26709797353
 20
1279.896841175793
 30
0.0
 40
2.25
  0
LINE
  5
3D76
330
2
100
AcDbEntity
  8
L-ZISSEN
100
AcDbLine
 10
1165.26710097353
 20
1282.896841175793
 30
0.0
 11
1162.26709797353
 21
1282.896841175793
 31
0.0
  0
LINE
  5
3D77
330
2
100
AcDbEntity
  8
L-ZISSEN
100
AcDbLine
 10
1162.26709797353
 20
1276.896841175793
 30
0.0
 11
1162.26709797353
 21
1291.896841175793
 31
0.0
  0
LINE
  5
3D78
330
2
100
AcDbEntity
  8
L-ZISSEN
100
AcDbLine
 10
1164.26709797353
 20
1289.896841175793
 30
0.0
 11
1162.26709797353
 21
1291.896841175793
 31
0.0
  0
LINE
  5
3D79
330
2
100
AcDbEntity
  8
L-ZISSEN
100
AcDbLine
 10
1164.26709797353
 20
1282.896841175793
 30
0.0
 11
1164.26709797353
 21
1289.896841175793
 31
0.0
  0
LINE
  5
3D7A
330
2
100
AcDbEntity
  8
L-ZISSEN
100
AcDbLine
 10
1212.26709797353
 20
1276.646841175793
 30
0.0
 11
1188.26709797353
 21
1276.646841175793
 31
0.0
  0
LINE
  5
3D7B
330
2
100
AcDbEntity
  8
L-ZISSEN
100
AcDbLine
 10
1212.26709797353
 20
1292.146841175793
 30
0.0
 11
1188.26709797353
 21
1292.146841175793
 31
0.0
  0
LINE
  5
3D7C
330
2
100
AcDbEntity
  8
L-ZISSEN
100
AcDbLine
 10
1186.26709797353
 20
1275.396841175793
 30
0.0
 11
1186.26709797353
 21
1293.396841175793
 31
0.0
  0
LINE
  5
3D7D
330
2
100
AcDbEntity
  8
L-ZISSEN
100
AcDbLine
 10
1186.26709797353
 20
1276.896841175793
 30
0.0
 11
1186.26709797353
 21
1291.896841175793
 31
0.0
  0
LINE
  5
3D7E
330
2
100
AcDbEntity
  8
L-ZISSEN
100
AcDbLine
 10
1180.26709797353
 20
1288.896841175793
 30
0.0
 11
1180.26709797353
 21
1291.896841175793
 31
0.0
  0
LINE
  5
3D7F
330
2
100
AcDbEntity
  8
L-ZISSEN
100
AcDbLine
 10
1184.26709797353
 20
1278.896841175793
 30
0.0
 11
1184.26709797353
 21
1285.896841175793
 31
0.0
  0
LINE
  5
3D80
330
2
100
AcDbEntity
  8
L-ZISSEN
100
AcDbLine
 10
1186.26709797353
 20
1285.896841175793
 30
0.0
 11
1183.26709797353
 21
1285.896841175793
 31
0.0
  0
ARC
  5
3D81
330
2
100
AcDbEntity
  8
L-ZISSEN
100
AcDbCircle
 10
1183.26709797353
 20
1288.896841175793
 30
0.0
 40
3.0
100
AcDbArc
 50
180.0
 51
270.0
  0
CIRCLE
  5
3D82
330
2
100
AcDbEntity
  8
L-ZISSEN
100
AcDbCircle
 10
1183.26709797353
 20
1288.896841175793
 30
0.0
 40
2.25
  0
LINE
  5
3D83
330
2
100
AcDbEntity
  8
L-ZISSEN
100
AcDbLine
 10
1168.26709797353
 20
1276.896841175793
 30
0.0
 11
1168.26709797353
 21
1279.896843175793
 31
0.0
  0
LINE
  5
3D84
330
2
100
AcDbEntity
  8
L-ZISSEN
100
AcDbLine
 10
1184.26709797353
 20
1278.896841175793
 30
0.0
 11
1168.26709797353
 21
1278.896841175793
 31
0.0
  0
LINE
  5
3D85
330
2
100
AcDbEntity
  8
L-ZISSEN
100
AcDbLine
 10
1212.76709797353
 20
1291.646841175793
 30
0.0
 11
1212.76709797353
 21
1277.146841175793
 31
0.0
  0
ARC
  5
3D86
330
2
100
AcDbEntity
  8
L-ZISSEN
100
AcDbCircle
 10
1212.26709797353
 20
1277.146841175793
 30
0.0
 40
0.5
100
AcDbArc
 50
270.0
 51
0.0
  0
ARC
  5
3D87
330
2
100
AcDbEntity
  8
L-ZISSEN
100
AcDbCircle
 10
1212.26709797353
 20
1291.646841175793
 30
0.0
 40
0.5
100
AcDbArc
 50
0.0
 51
90.0
  0
LINE
  5
3D89
330
2
100
AcDbEntity
  8
L-ZISSEN
100
AcDbLine
 10
1159.26709797353
 20
1288.726968194715
 30
0.0
 11
1159.26709797353
 21
1293.396841175793
 31
0.0
  0
LINE
  5
3D8A
330
2
100
AcDbEntity
  8
L-ZISSEN
100
AcDbLine
 10
1159.26709797353
 20
1275.396841175793
 30
0.0
 11
1159.26709797353
 21
1280.066714156871
 31
0.0
  0
LINE
  5
3D8B
330
2
100
AcDbEntity
  8
L-ZISSEN
100
AcDbLine
 10
1188.26709797353
 20
1292.146841175793
 30
0.0
 11
1188.26709797353
 21
1276.646841175793
 31
0.0
  0
ARC
  5
3D8C
330
2
100
AcDbEntity
  8
L-ZISSEN
100
AcDbCircle
 10
1150.76709797353
 20
1284.396841175793
 30
0.0
 40
37.5
100
AcDbArc
 50
11.53695899999985
 51
348.4630409999998
  0
SOLID
  5
3D8D
330
2
100
AcDbEntity
  8
L-ZISSEN
100
AcDbTrace
 10
1204.637029984302
 20
1282.902049181757
 30
0.0
 11
1205.047779388875
 21
1283.427148573385
 31
0.0
 12
1203.267106511705
 22
1284.396847091288
 32
0.0
 13
1203.267106511705
 23
1284.396847091288
 33
0.0
  0
ENDSEC
  0
SECTION
  2
OBJECTS
  0
DICTIONARY
  5
1A
330
0
100
AcDbDictionary
281
     1
  3
ACAD_COLOR
350
1750
  3
ACAD_DETAILVIEWSTYLE
350
10C2
  3
ACAD_GROUP
350
18
  3
ACAD_IMAGE_VARS
350
10BC
  3
ACAD_LAYOUT
350
10AF
  3
ACAD_MATERIAL
350
10B2
  3
ACAD_MLEADERSTYLE
350
10B8
  3
ACAD_MLINESTYLE
350
19
  3
ACAD_PLOTSETTINGS
350
108A
  3
ACAD_PLOTSTYLENAME
350
108B
  3
ACAD_SCALELIST
350
108D
  3
ACAD_SECTIONVIEWSTYLE
350
10C3
  3
ACAD_TABLESTYLE
350
10B6
  3
ACAD_VISUALSTYLE
350
1071
  3
ACDB_RECOMPOSE_DATA
350
3D98
  3
AcDbVariableDictionary
350
10BD
  3
APPDATA
350
10BA
  0
SUN
  5
10BB
330
1070
100
AcDbSun
 90
        1
290
     0
 63
     7
421
 16777215
 40
1.0
291
     1
 91
  2455826
 92
 54000000
292
     0
 70
     2
 71
   256
280
     1
  0
DICTIONARY
  5
10F1
330
B
100
AcDbDictionary
280
     1
281
     1
  3
ACAD_LAYERSTATES
360
10F2
  0
DICTIONARY
  5
1748
330
1747
100
AcDbDictionary
280
     1
281
     1
  3
ADSK_XREC_LAYER_RECONCILED
360
1749
  0
DICTIONARY
  5
1750
102
{ACAD_REACTORS
330
1A
102
}
330
1A
100
AcDbDictionary
281
     1
  0
DICTIONARY
  5
10C2
102
{ACAD_REACTORS
330
1A
102
}
330
1A
100
AcDbDictionary
281
     1
  0
DICTIONARY
  5
18
102
{ACAD_REACTORS
330
1A
102
}
330
1A
100
AcDbDictionary
281
     1
  0
RASTERVARIABLES
  5
10BC
102
{ACAD_REACTORS
330
1A
102
}
330
1A
100
AcDbRasterVariables
 90
        0
 70
     1
 71
     1
 72
     0
  0
DICTIONARY
  5
10AF
102
{ACAD_REACTORS
330
1A
102
}
330
1A
100
AcDbDictionary
281
     1
  3
Model
350
10B0
  3
シート 1
350
10B1
  0
DICTIONARY
  5
10B2
102
{ACAD_REACTORS
330
1A
102
}
330
1A
100
AcDbDictionary
281
     1
  3
ByBlock
350
10B4
  3
ByLayer
350
10B3
  3
Global
350
10B5
  0
DICTIONARY
  5
10B8
102
{ACAD_REACTORS
330
1A
102
}
330
1A
100
AcDbDictionary
281
     1
  3
Standard
350
10B9
  0
DICTIONARY
  5
19
102
{ACAD_REACTORS
330
1A
102
}
330
1A
100
AcDbDictionary
281
     1
  3
STANDARD
350
1E
  0
DICTIONARY
  5
108A
102
{ACAD_REACTORS
330
1A
102
}
330
1A
100
AcDbDictionary
281
     1
  0
ACDBDICTIONARYWDFLT
  5
108B
102
{ACAD_REACTORS
330
1A
102
}
330
1A
100
AcDbDictionary
281
     1
  3
Normal
350
108C
100
AcDbDictionaryWithDefault
340
108C
  0
DICTIONARY
  5
108D
102
{ACAD_REACTORS
330
1A
102
}
330
1A
100
AcDbDictionary
281
     1
  3
A0
350
108E
  3
A1
350
108F
  3
A2
350
1090
  3
A3
350
1091
  3
A4
350
1092
  3
A5
350
1093
  3
A6
350
1094
  3
A7
350
1095
  3
A8
350
1096
  3
A9
350
1097
  3
B0
350
1098
  3
B1
350
1099
  3
B2
350
109A
  3
B3
350
109B
  3
B4
350
109C
  3
B5
350
109D
  3
B6
350
109E
  3
B7
350
109F
  3
B8
350
10A0
  3
B9
350
10A1
  3
C0
350
10A2
  3
C1
350
10A3
  3
C2
350
10A4
  3
C3
350
10A5
  3
C4
350
10A6
  3
C5
350
10A7
  3
C6
350
10A8
  3
C7
350
10A9
  3
C8
350
10AA
  3
C9
350
10AB
  3
D0
350
10AC
  3
D1
350
10AD
  3
D2
350
10AE
  0
DICTIONARY
  5
10C3
102
{ACAD_REACTORS
330
1A
102
}
330
1A
100
AcDbDictionary
281
     1
  0
DICTIONARY
  5
10B6
102
{ACAD_REACTORS
330
1A
102
}
330
1A
100
AcDbDictionary
281
     1
  3
Standard
350
10B7
  0
DICTIONARY
  5
1071
102
{ACAD_REACTORS
330
1A
102
}
330
1A
100
AcDbDictionary
281
     1
  3
2dWireframe
350
1076
  3
Basic
350
1079
  3
Brighten
350
107D
  3
ColorChange
350
1081
  3
Conceptual
350
107B
  3
Dim
350
107C
  3
EdgeColorOff
350
1084
  3
Facepattern
350
1080
  3
Flat
350
1072
  3
FlatWithEdges
350
1073
  3
Gouraud
350
1074
  3
GouraudWithEdges
350
1075
  3
Hidden
350
1078
  3
JitterOff
350
1082
  3
Linepattern
350
107F
  3
OverhangOff
350
1083
  3
Realistic
350
107A
  3
Shaded
350
1089
  3
Shaded with edges
350
1088
  3
Shades of Gray
350
1085
  3
Sketchy
350
1086
  3
Thicken
350
107E
  3
Wireframe
350
1077
  3
X-Ray
350
1087
  0
XRECORD
  5
3D98
102
{ACAD_REACTORS
330
1A
102
}
330
1A
100
AcDbXrecord
280
     1
 90
        1
330
10B7
  0
DICTIONARY
  5
10BD
102
{ACAD_REACTORS
330
1A
102
}
330
1A
100
AcDbDictionary
281
     1
  3
CANNOSCALE
350
10BE
  3
CMLEADERSTYLE
350
10C0
  3
CTABLESTYLE
350
10BF
  3
MSLTSCALE
350
10C1
  0
DICTIONARY
  5
10BA
102
{ACAD_REACTORS
330
1A
102
}
330
1A
100
AcDbDictionary
281
     1
  0
DICTIONARY
  5
10F2
102
{ACAD_REACTORS
330
10F1
102
}
330
10F1
100
AcDbDictionary
281
     1
  0
XRECORD
  5
1749
102
{ACAD_REACTORS
330
1748
102
}
330
1748
100
AcDbXrecord
280
     1
290
     1
  0
LAYOUT
  5
10B0
102
{ACAD_REACTORS
330
10AF
102
}
330
10AF
100
AcDbPlotSettings
  1

  2
none_device
  4
Letter_(8.50_x_11.00_Inches)
  6

 40
6.35
 41
6.35
 42
6.35
 43
6.35
 44
215.9
 45
279.4
 46
0.0
 47
0.0
 48
0.0
 49
0.0
140
0.0
141
0.0
142
1.0
143
180.8346773069324
 70
  1712
 72
     0
 73
     0
 74
     0
  7

 75
     0
 76
     0
 77
     2
 78
   300
147
0.0055299128181189
148
0.0
149
0.0
100
AcDbLayout
  1
Model
 70
     1
 71
     0
 10
0.0
 20
0.0
 11
12.0
 21
9.0
 12
0.0
 22
0.0
 32
0.0
 14
817.3717591251102
 24
840.590113802472
 34
-0.3006617853809416
 15
1232.186301986013
 25
1328.896847091288
 35
0.0000000000000001
146
0.0
 13
0.0
 23
0.0
 33
0.0
 16
1.0
 26
0.0
 36
0.0
 17
0.0
 27
1.0
 37
0.0
 76
     0
330
2
331
1070
  0
LAYOUT
  5
10B1
102
{ACAD_REACTORS
330
10AF
102
}
330
10AF
100
AcDbPlotSettings
  1

  2
none_device
  4

  6

 40
0.0
 41
0.0
 42
0.0
 43
0.0
 44
0.0
 45
0.0
 46
0.0
 47
0.0
 48
0.0
 49
0.0
140
0.0
141
0.0
142
1.0
143
1.0
 70
   688
 72
     0
 73
     0
 74
     5
  7

 75
    16
 76
     0
 77
     2
 78
   300
147
1.0
148
0.0
149
0.0
100
AcDbLayout
  1
シート 1
 70
     0
 71
     1
 10
0.0
 20
0.0
 11
0.0
 21
0.0
 12
0.0
 22
0.0
 32
0.0
 14
1.000000000000000E+20
 24
1.000000000000000E+20
 34
1.000000000000000E+20
 15
-1.000000000000000E+20
 25
-1.000000000000000E+20
 35
-1.000000000000000E+20
146
0.0
 13
0.0
 23
0.0
 33
0.0
 16
1.0
 26
0.0
 36
0.0
 17
0.0
 27
1.0
 37
0.0
 76
     0
330
8
  0
MATERIAL
  5
10B4
102
{ACAD_REACTORS
330
10B2
102
}
330
10B2
100
AcDbMaterial
  1
ByBlock
 72
     1
 94
      127
  0
MATERIAL
  5
10B3
102
{ACAD_REACTORS
330
10B2
102
}
330
10B2
100
AcDbMaterial
  1
ByLayer
 72
     1
 94
      127
  0
MATERIAL
  5
10B5
102
{ACAD_REACTORS
330
10B2
102
}
330
10B2
100
AcDbMaterial
  1
Global
 72
     1
 94
      127
  0
MLEADERSTYLE
  5
10B9
102
{ACAD_REACTORS
330
10B8
102
}
330
10B8
100
AcDbMLeaderStyle
179
     2
170
     2
171
     1
172
     0
 90
        2
 40
0.0
 41
0.0
173
     1
 91
-1056964608
340
F
 92
       -2
290
     1
 42
0.09
291
     1
 43
0.36
  3
Standard
341
0
 44
0.18
300

342
D
174
     1
178
     1
175
     1
176
     0
 93
-1056964608
 45
0.18
292
     0
297
     0
 46
0.18
343
0
 94
-1056964608
 47
1.0
 49
1.0
140
1.0
293
     1
141
0.0
294
     1
177
     0
142
1.0
295
     0
296
     0
143
0.125
271
     0
272
     9
273
     9
  0
MLINESTYLE
  5
1E
102
{ACAD_REACTORS
330
19
102
}
330
19
100
AcDbMlineStyle
  2
STANDARD
 70
     0
  3

 62
     0
 51
90.0
 52
90.0
 71
     2
 49
0.5
 62
   256
  6
BYLAYER
 49
-0.5
 62
   256
  6
BYLAYER
  0
ACDBPLACEHOLDER
  5
108C
102
{ACAD_REACTORS
330
108B
102
}
330
108B
  0
SCALE
  5
108E
102
{ACAD_REACTORS
330
108D
102
}
330
108D
100
AcDbScale
 70
     0
300
1:1
140
1.0
141
1.0
290
     1
  0
SCALE
  5
108F
102
{ACAD_REACTORS
330
108D
102
}
330
108D
100
AcDbScale
 70
     0
300
1:2
140
1.0
141
2.0
290
     0
  0
SCALE
  5
1090
102
{ACAD_REACTORS
330
108D
102
}
330
108D
100
AcDbScale
 70
     0
300
1:4
140
1.0
141
4.0
290
     0
  0
SCALE
  5
1091
102
{ACAD_REACTORS
330
108D
102
}
330
108D
100
AcDbScale
 70
     0
300
1:5
140
1.0
141
5.0
290
     0
  0
SCALE
  5
1092
102
{ACAD_REACTORS
330
108D
102
}
330
108D
100
AcDbScale
 70
     0
300
1:8
140
1.0
141
8.0
290
     0
  0
SCALE
  5
1093
102
{ACAD_REACTORS
330
108D
102
}
330
108D
100
AcDbScale
 70
     0
300
1:10
140
1.0
141
10.0
290
     0
  0
SCALE
  5
1094
102
{ACAD_REACTORS
330
108D
102
}
330
108D
100
AcDbScale
 70
     0
300
1:16
140
1.0
141
16.0
290
     0
  0
SCALE
  5
1095
102
{ACAD_REACTORS
330
108D
102
}
330
108D
100
AcDbScale
 70
     0
300
1:20
140
1.0
141
20.0
290
     0
  0
SCALE
  5
1096
102
{ACAD_REACTORS
330
108D
102
}
330
108D
100
AcDbScale
 70
     0
300
1:30
140
1.0
141
30.0
290
     0
  0
SCALE
  5
1097
102
{ACAD_REACTORS
330
108D
102
}
330
108D
100
AcDbScale
 70
     0
300
1:40
140
1.0
141
40.0
290
     0
  0
SCALE
  5
1098
102
{ACAD_REACTORS
330
108D
102
}
330
108D
100
AcDbScale
 70
     0
300
1:50
140
1.0
141
50.0
290
     0
  0
SCALE
  5
1099
102
{ACAD_REACTORS
330
108D
102
}
330
108D
100
AcDbScale
 70
     0
300
1:100
140
1.0
141
100.0
290
     0
  0
SCALE
  5
109A
102
{ACAD_REACTORS
330
108D
102
}
330
108D
100
AcDbScale
 70
     0
300
2:1
140
2.0
141
1.0
290
     0
  0
SCALE
  5
109B
102
{ACAD_REACTORS
330
108D
102
}
330
108D
100
AcDbScale
 70
     0
300
4:1
140
4.0
141
1.0
290
     0
  0
SCALE
  5
109C
102
{ACAD_REACTORS
330
108D
102
}
330
108D
100
AcDbScale
 70
     0
300
8:1
140
8.0
141
1.0
290
     0
  0
SCALE
  5
109D
102
{ACAD_REACTORS
330
108D
102
}
330
108D
100
AcDbScale
 70
     0
300
10:1
140
10.0
141
1.0
290
     0
  0
SCALE
  5
109E
102
{ACAD_REACTORS
330
108D
102
}
330
108D
100
AcDbScale
 70
     0
300
100:1
140
100.0
141
1.0
290
     0
  0
SCALE
  5
109F
102
{ACAD_REACTORS
330
108D
102
}
330
108D
100
AcDbScale
 70
     0
300
1/128" = 1'-0"
140
0.0078125
141
12.0
290
     0
  0
SCALE
  5
10A0
102
{ACAD_REACTORS
330
108D
102
}
330
108D
100
AcDbScale
 70
     0
300
1/64" = 1'-0"
140
0.015625
141
12.0
290
     0
  0
SCALE
  5
10A1
102
{ACAD_REACTORS
330
108D
102
}
330
108D
100
AcDbScale
 70
     0
300
1/32" = 1'-0"
140
0.03125
141
12.0
290
     0
  0
SCALE
  5
10A2
102
{ACAD_REACTORS
330
108D
102
}
330
108D
100
AcDbScale
 70
     0
300
1/16" = 1'-0"
140
0.0625
141
12.0
290
     0
  0
SCALE
  5
10A3
102
{ACAD_REACTORS
330
108D
102
}
330
108D
100
AcDbScale
 70
     0
300
3/32" = 1'-0"
140
0.09375
141
12.0
290
     0
  0
SCALE
  5
10A4
102
{ACAD_REACTORS
330
108D
102
}
330
108D
100
AcDbScale
 70
     0
300
1/8" = 1'-0"
140
0.125
141
12.0
290
     0
  0
SCALE
  5
10A5
102
{ACAD_REACTORS
330
108D
102
}
330
108D
100
AcDbScale
 70
     0
300
3/16" = 1'-0"
140
0.1875
141
12.0
290
     0
  0
SCALE
  5
10A6
102
{ACAD_REACTORS
330
108D
102
}
330
108D
100
AcDbScale
 70
     0
300
1/4" = 1'-0"
140
0.25
141
12.0
290
     0
  0
SCALE
  5
10A7
102
{ACAD_REACTORS
330
108D
102
}
330
108D
100
AcDbScale
 70
     0
300
3/8" = 1'-0"
140
0.375
141
12.0
290
     0
  0
SCALE
  5
10A8
102
{ACAD_REACTORS
330
108D
102
}
330
108D
100
AcDbScale
 70
     0
300
1/2" = 1'-0"
140
0.5
141
12.0
290
     0
  0
SCALE
  5
10A9
102
{ACAD_REACTORS
330
108D
102
}
330
108D
100
AcDbScale
 70
     0
300
3/4" = 1'-0"
140
0.75
141
12.0
290
     0
  0
SCALE
  5
10AA
102
{ACAD_REACTORS
330
108D
102
}
330
108D
100
AcDbScale
 70
     0
300
1" = 1'-0"
140
1.0
141
12.0
290
     0
  0
SCALE
  5
10AB
102
{ACAD_REACTORS
330
108D
102
}
330
108D
100
AcDbScale
 70
     0
300
1-1/2" = 1'-0"
140
1.5
141
12.0
290
     0
  0
SCALE
  5
10AC
102
{ACAD_REACTORS
330
108D
102
}
330
108D
100
AcDbScale
 70
     0
300
3" = 1'-0"
140
3.0
141
12.0
290
     0
  0
SCALE
  5
10AD
102
{ACAD_REACTORS
330
108D
102
}
330
108D
100
AcDbScale
 70
     0
300
6" = 1'-0"
140
6.0
141
12.0
290
     0
  0
SCALE
  5
10AE
102
{ACAD_REACTORS
330
108D
102
}
330
108D
100
AcDbScale
 70
     0
300
1'-0" = 1'-0"
140
12.0
141
12.0
290
     0
  0
TABLESTYLE
  5
10B7
102
{ACAD_REACTORS
330
10B6
102
}
102
{ACAD_XDICTIONARY
360
3D96
102
}
330
10B6
100
AcDbTableStyle
  3
Standard
 70
     0
 71
     0
 40
0.06
 41
0.06
280
     0
281
     0
  7
STANDARD
140
0.18
170
     2
 62
     0
 63
   257
283
     0
 90
        4
 91
        0
  1

274
    -2
284
     1
 64
     0
275
    -2
285
     1
 65
     0
276
    -2
286
     1
 66
     0
277
    -2
287
     1
 67
     0
278
    -2
288
     1
 68
     0
279
    -2
289
     1
 69
     0
  7
STANDARD
140
0.25
170
     5
 62
     0
 63
   257
283
     0
 90
        4
 91
        0
  1

274
    -2
284
     1
 64
     0
275
    -2
285
     1
 65
     0
276
    -2
286
     1
 66
     0
277
    -2
287
     1
 67
     0
278
    -2
288
     1
 68
     0
279
    -2
289
     1
 69
     0
  7
STANDARD
140
0.18
170
     5
 62
     0
 63
   257
283
     0
 90
        4
 91
        0
  1

274
    -2
284
     1
 64
     0
275
    -2
285
     1
 65
     0
276
    -2
286
     1
 66
     0
277
    -2
287
     1
 67
     0
278
    -2
288
     1
 68
     0
279
    -2
289
     1
 69
     0
  0
VISUALSTYLE
  5
1076
102
{ACAD_REACTORS
330
1071
102
}
330
1071
100
AcDbVisualStyle
  2
2dWireframe
 70
     4
177
     2
291
     0
 71
     0
176
     1
 72
     2
176
     1
 73
     0
176
     1
 90
        0
176
     1
 40
0.6
176
     1
 41
30.0
176
     1
 62
     5
 63
     7
421
 16777215
176
     1
 74
     1
176
     1
 91
        4
176
     1
 64
     7
176
     1
 65
   257
176
     1
 75
     1
176
     1
175
     1
176
     1
 42
1.0
176
     1
 92
        0
176
     1
 66
   257
176
     1
 43
1.0
176
     1
 76
     1
176
     1
 77
     6
176
     1
 78
     2
176
     1
 67
     7
176
     1
 79
     5
176
     1
170
     0
176
     1
171
     0
176
     1
290
     0
176
     1
 93
        1
176
     1
 44
0.0
176
     1
173
     0
176
     1
  0
VISUALSTYLE
  5
1079
102
{ACAD_REACTORS
330
1071
102
}
330
1071
100
AcDbVisualStyle
  2
Basic
 70
     7
177
     2
291
     1
 71
     1
176
     1
 72
     0
176
     1
 73
     1
176
     1
 90
        0
176
     1
 40
0.6
176
     1
 41
30.0
176
     1
 62
     5
 63
     7
421
 16777215
176
     1
 74
     0
176
     1
 91
        4
176
     1
 64
     7
176
     1
 65
   257
176
     1
 75
     1
176
     1
175
     1
176
     1
 42
1.0
176
     1
 92
        8
176
     1
 66
     7
176
     1
 43
1.0
176
     1
 76
     1
176
     1
 77
     6
176
     1
 78
     2
176
     1
 67
     7
176
     1
 79
     5
176
     1
170
     0
176
     1
171
     0
176
     1
290
     0
176
     1
 93
        1
176
     1
 44
0.0
176
     1
173
     0
176
     1
  0
VISUALSTYLE
  5
107D
102
{ACAD_REACTORS
330
1071
102
}
330
1071
100
AcDbVisualStyle
  2
Brighten
 70
    12
177
     2
291
     1
 71
     2
176
     1
 72
     2
176
     1
 73
     0
176
     1
 90
        0
176
     1
 40
0.6
176
     1
 41
30.0
176
     1
 62
     5
 63
     7
421
 16777215
176
     1
 74
     1
176
     1
 91
        4
176
     1
 64
     7
176
     1
 65
   257
176
     1
 75
     1
176
     1
175
     1
176
     1
 42
1.0
176
     1
 92
        8
176
     1
 66
     7
176
     1
 43
1.0
176
     1
 76
     1
176
     1
 77
     6
176
     1
 78
     2
176
     1
 67
     7
176
     1
 79
     5
176
     1
170
     0
176
     1
171
     0
176
     1
290
     0
176
     1
 93
        1
176
     1
 44
50.0
176
     1
173
     0
176
     1
  0
VISUALSTYLE
  5
1081
102
{ACAD_REACTORS
330
1071
102
}
330
1071
100
AcDbVisualStyle
  2
ColorChange
 70
    16
177
     2
291
     1
 71
     2
176
     1
 72
     2
176
     1
 73
     3
176
     1
 90
        0
176
     1
 40
0.6
176
     1
 41
30.0
176
     1
 62
     5
 63
     8
421
  8421504
176
     1
 74
     1
176
     1
 91
        4
176
     1
 64
     7
176
     1
 65
   257
176
     1
 75
     1
176
     1
175
     1
176
     1
 42
1.0
176
     1
 92
        8
176
     1
 66
     8
424
  8421504
176
     1
 43
1.0
176
     1
 76
     1
176
     1
 77
     6
176
     1
 78
     2
176
     1
 67
     7
176
     1
 79
     5
176
     1
170
     0
176
     1
171
     0
176
     1
290
     0
176
     1
 93
        1
176
     1
 44
0.0
176
     1
173
     0
176
     1
  0
VISUALSTYLE
  5
107B
102
{ACAD_REACTORS
330
1071
102
}
330
1071
100
AcDbVisualStyle
  2
Conceptual
 70
     9
177
     2
291
     0
 71
     3
176
     1
 72
     2
176
     1
 73
     0
176
     1
 90
        0
176
     1
 40
0.6
176
     1
 41
30.0
176
     1
 62
     5
 63
     7
421
 16777215
176
     1
 74
     2
176
     1
 91
        2
176
     1
 64
     7
176
     1
 65
   257
176
     1
 75
     1
176
     1
175
     1
176
     1
 42
179.0
176
     1
 92
        8
176
     1
 66
     7
176
     1
 43
1.0
176
     1
 76
     1
176
     1
 77
     6
176
     1
 78
     2
176
     1
 67
     7
176
     1
 79
     3
176
     1
170
     0
176
     1
171
     0
176
     1
290
     0
176
     1
 93
        1
176
     1
 44
0.0
176
     1
173
     0
176
     1
  0
VISUALSTYLE
  5
107C
102
{ACAD_REACTORS
330
1071
102
}
330
1071
100
AcDbVisualStyle
  2
Dim
 70
    11
177
     2
291
     1
 71
     2
176
     1
 72
     2
176
     1
 73
     0
176
     1
 90
        0
176
     1
 40
0.6
176
     1
 41
30.0
176
     1
 62
     5
 63
     7
421
 16777215
176
     1
 74
     1
176
     1
 91
        4
176
     1
 64
     7
176
     1
 65
   257
176
     1
 75
     1
176
     1
175
     1
176
     1
 42
1.0
176
     1
 92
        8
176
     1
 66
     7
176
     1
 43
1.0
176
     1
 76
     1
176
     1
 77
     6
176
     1
 78
     2
176
     1
 67
     7
176
     1
 79
     5
176
     1
170
     0
176
     1
171
     0
176
     1
290
     0
176
     1
 93
        1
176
     1
 44
-50.0
176
     1
173
     0
176
     1
  0
VISUALSTYLE
  5
1084
102
{ACAD_REACTORS
330
1071
102
}
330
1071
100
AcDbVisualStyle
  2
EdgeColorOff
 70
    22
177
     2
291
     1
 71
     2
176
     0
 72
     2
176
     0
 73
     0
176
     0
 90
        0
176
     0
 40
0.6
176
     0
 41
30.0
176
     0
 62
     5
 63
     7
421
 16777215
176
     0
 74
     1
176
     0
 91
        4
176
     0
 64
     7
176
     0
 65
   257
176
     0
 75
     1
176
     0
175
     1
176
     0
 42
1.0
176
     0
 92
        8
176
     2
 66
     7
176
     0
 43
1.0
176
     0
 76
     1
176
     0
 77
     6
176
     0
 78
     2
176
     0
 67
     7
176
     0
 79
     5
176
     0
170
     0
176
     0
171
     0
176
     0
290
     0
176
     0
 93
        1
176
     0
 44
0.0
176
     0
173
     0
176
     0
  0
VISUALSTYLE
  5
1080
102
{ACAD_REACTORS
330
1071
102
}
330
1071
100
AcDbVisualStyle
  2
Facepattern
 70
    15
177
     2
291
     1
 71
     2
176
     1
 72
     2
176
     1
 73
     0
176
     1
 90
        0
176
     1
 40
0.6
176
     1
 41
30.0
176
     1
 62
     5
 63
     7
421
 16777215
176
     1
 74
     1
176
     1
 91
        4
176
     1
 64
     7
176
     1
 65
   257
176
     1
 75
     1
176
     1
175
     1
176
     1
 42
1.0
176
     1
 92
        8
176
     1
 66
     7
176
     1
 43
1.0
176
     1
 76
     1
176
     1
 77
     6
176
     1
 78
     2
176
     1
 67
     7
176
     1
 79
     5
176
     1
170
     0
176
     1
171
     0
176
     1
290
     0
176
     1
 93
        1
176
     1
 44
0.0
176
     1
173
     0
176
     1
  0
VISUALSTYLE
  5
1072
102
{ACAD_REACTORS
330
1071
102
}
330
1071
100
AcDbVisualStyle
  2
Flat
 70
     0
177
     2
291
     1
 71
     2
176
     1
 72
     1
176
     1
 73
     1
176
     1
 90
        2
176
     1
 40
0.6
176
     1
 41
30.0
176
     1
 62
     5
 63
     7
421
 16777215
176
     1
 74
     0
176
     1
 91
        0
176
     1
 64
     7
176
     1
 65
   257
176
     1
 75
     1
176
     1
175
     1
176
     1
 42
1.0
176
     1
 92
        8
176
     1
 66
     7
176
     1
 43
1.0
176
     1
 76
     1
176
     1
 77
     6
176
     1
 78
     2
176
     1
 67
     7
176
     1
 79
     5
176
     1
170
     0
176
     1
171
     0
176
     1
290
     0
176
     1
 93
       13
176
     1
 44
0.0
176
     1
173
     0
176
     1
  0
VISUALSTYLE
  5
1073
102
{ACAD_REACTORS
330
1071
102
}
330
1071
100
AcDbVisualStyle
  2
FlatWithEdges
 70
     1
177
     2
291
     1
 71
     2
176
     1
 72
     1
176
     1
 73
     1
176
     1
 90
        2
176
     1
 40
0.6
176
     1
 41
30.0
176
     1
 62
     5
 63
     7
421
 16777215
176
     1
 74
     1
176
     1
 91
        0
176
     1
 64
     7
176
     1
 65
   257
176
     1
 75
     1
176
     1
175
     1
176
     1
 42
1.0
176
     1
 92
        0
176
     1
 66
   257
176
     1
 43
1.0
176
     1
 76
     1
176
     1
 77
     6
176
     1
 78
     2
176
     1
 67
     7
176
     1
 79
     5
176
     1
170
     0
176
     1
171
     0
176
     1
290
     0
176
     1
 93
       13
176
     1
 44
0.0
176
     1
173
     0
176
     1
  0
VISUALSTYLE
  5
1074
102
{ACAD_REACTORS
330
1071
102
}
330
1071
100
AcDbVisualStyle
  2
Gouraud
 70
     2
177
     2
291
     1
 71
     2
176
     1
 72
     2
176
     1
 73
     1
176
     1
 90
        2
176
     1
 40
0.6
176
     1
 41
30.0
176
     1
 62
     5
 63
     7
421
 16777215
176
     1
 74
     0
176
     1
 91
        0
176
     1
 64
     7
176
     1
 65
   257
176
     1
 75
     1
176
     1
175
     1
176
     1
 42
1.0
176
     1
 92
        0
176
     1
 66
     7
176
     1
 43
1.0
176
     1
 76
     1
176
     1
 77
     6
176
     1
 78
     2
176
     1
 67
     7
176
     1
 79
     5
176
     1
170
     0
176
     1
171
     0
176
     1
290
     0
176
     1
 93
       13
176
     1
 44
0.0
176
     1
173
     0
176
     1
  0
VISUALSTYLE
  5
1075
102
{ACAD_REACTORS
330
1071
102
}
330
1071
100
AcDbVisualStyle
  2
GouraudWithEdges
 70
     3
177
     2
291
     1
 71
     2
176
     1
 72
     2
176
     1
 73
     1
176
     1
 90
        2
176
     1
 40
0.6
176
     1
 41
30.0
176
     1
 62
     5
 63
     7
421
 16777215
176
     1
 74
     1
176
     1
 91
        0
176
     1
 64
     7
176
     1
 65
   257
176
     1
 75
     1
176
     1
175
     1
176
     1
 42
1.0
176
     1
 92
        0
176
     1
 66
   257
176
     1
 43
1.0
176
     1
 76
     1
176
     1
 77
     6
176
     1
 78
     2
176
     1
 67
     7
176
     1
 79
     5
176
     1
170
     0
176
     1
171
     0
176
     1
290
     0
176
     1
 93
       13
176
     1
 44
0.0
176
     1
173
     0
176
     1
  0
VISUALSTYLE
  5
1078
102
{ACAD_REACTORS
330
1071
102
}
330
1071
100
AcDbVisualStyle
  2
Hidden
 70
     6
177
     2
291
     0
 71
     1
176
     1
 72
     2
176
     1
 73
     2
176
     1
 90
        0
176
     1
 40
0.6
176
     1
 41
30.0
176
     1
 62
     5
 63
     7
421
 16777215
176
     1
 74
     2
176
     1
 91
        2
176
     1
 64
     7
176
     1
 65
   257
176
     1
 75
     2
176
     1
175
     1
176
     1
 42
40.0
176
     1
 92
        0
176
     1
 66
   257
176
     1
 43
1.0
176
     1
 76
     1
176
     1
 77
     6
176
     1
 78
     2
176
     1
 67
     7
176
     1
 79
     3
176
     1
170
     0
176
     1
171
     0
176
     1
290
     0
176
     1
 93
        1
176
     1
 44
0.0
176
     1
173
     0
176
     1
  0
VISUALSTYLE
  5
1082
102
{ACAD_REACTORS
330
1071
102
}
330
1071
100
AcDbVisualStyle
  2
JitterOff
 70
    20
177
     2
291
     1
 71
     2
176
     0
 72
     2
176
     0
 73
     0
176
     0
 90
        0
176
     0
 40
0.6
176
     0
 41
30.0
176
     0
 62
     5
 63
     7
421
 16777215
176
     0
 74
     1
176
     0
 91
        4
176
     0
 64
     7
176
     0
 65
   257
176
     0
 75
     1
176
     0
175
     1
176
     0
 42
1.0
176
     0
 92
       10
176
     2
 66
     7
176
     0
 43
1.0
176
     0
 76
     1
176
     0
 77
     6
176
     0
 78
     2
176
     0
 67
     7
176
     0
 79
     5
176
     0
170
     0
176
     0
171
     0
176
     0
290
     0
176
     0
 93
        1
176
     0
 44
0.0
176
     0
173
     0
176
     0
  0
VISUALSTYLE
  5
107F
102
{ACAD_REACTORS
330
1071
102
}
330
1071
100
AcDbVisualStyle
  2
Linepattern
 70
    14
177
     2
291
     1
 71
     2
176
     1
 72
     2
176
     1
 73
     0
176
     1
 90
        0
176
     1
 40
0.6
176
     1
 41
30.0
176
     1
 62
     5
 63
     7
421
 16777215
176
     1
 74
     1
176
     1
 91
        4
176
     1
 64
     7
176
     1
 65
   257
176
     1
 75
     7
176
     1
175
     7
176
     1
 42
1.0
176
     1
 92
        8
176
     1
 66
     7
176
     1
 43
1.0
176
     1
 76
     1
176
     1
 77
     6
176
     1
 78
     2
176
     1
 67
     7
176
     1
 79
     5
176
     1
170
     0
176
     1
171
     0
176
     1
290
     0
176
     1
 93
        1
176
     1
 44
0.0
176
     1
173
     0
176
     1
  0
VISUALSTYLE
  5
1083
102
{ACAD_REACTORS
330
1071
102
}
330
1071
100
AcDbVisualStyle
  2
OverhangOff
 70
    21
177
     2
291
     1
 71
     2
176
     0
 72
     2
176
     0
 73
     0
176
     0
 90
        0
176
     0
 40
0.6
176
     0
 41
30.0
176
     0
 62
     5
 63
     7
421
 16777215
176
     0
 74
     1
176
     0
 91
        4
176
     0
 64
     7
176
     0
 65
   257
176
     0
 75
     1
176
     0
175
     1
176
     0
 42
1.0
176
     0
 92
        9
176
     2
 66
     7
176
     0
 43
1.0
176
     0
 76
     1
176
     0
 77
     6
176
     0
 78
     2
176
     0
 67
     7
176
     0
 79
     5
176
     0
170
     0
176
     0
171
     0
176
     0
290
     0
176
     0
 93
        1
176
     0
 44
0.0
176
     0
173
     0
176
     0
  0
VISUALSTYLE
  5
107A
102
{ACAD_REACTORS
330
1071
102
}
330
1071
100
AcDbVisualStyle
  2
Realistic
 70
     8
177
     2
291
     0
 71
     2
176
     1
 72
     3
176
     1
 73
     0
176
     1
 90
        2
176
     1
 40
0.6
176
     1
 41
30.0
176
     1
 62
     5
 63
     7
421
 16777215
176
     1
 74
     0
176
     1
 91
        0
176
     1
 64
     7
176
     1
 65
   257
176
     1
 75
     1
176
     1
175
     1
176
     1
 42
1.0
176
     1
 92
        8
176
     1
 66
   257
176
     1
 43
1.0
176
     1
 76
     1
176
     1
 77
     6
176
     1
 78
     2
176
     1
 67
     7
176
     1
 79
     3
176
     1
170
     0
176
     1
171
     0
176
     1
290
     0
176
     1
 93
       13
176
     1
 44
0.0
176
     1
173
     0
176
     1
  0
VISUALSTYLE
  5
1089
102
{ACAD_REACTORS
330
1071
102
}
330
1071
100
AcDbVisualStyle
  2
Shaded
 70
    27
177
     2
291
     0
 71
     2
176
     1
 72
     2
176
     1
 73
     1
176
     1
 90
        2
176
     1
 40
0.6
176
     1
 41
30.0
176
     1
 62
     5
 63
     7
421
 16777215
176
     1
 74
     0
176
     1
 91
        4
176
     1
 64
     7
176
     1
 65
   257
176
     1
 75
     1
176
     1
175
     1
176
     1
 42
1.0
176
     1
 92
        8
176
     1
 66
   257
176
     1
 43
1.0
176
     1
 76
     1
176
     1
 77
     6
176
     1
 78
     2
176
     1
 67
     8
425
  7895160
176
     1
 79
     3
176
     1
170
     0
176
     1
171
     0
176
     1
290
     0
176
     1
 93
        5
176
     1
 44
0.0
176
     1
173
     0
176
     1
  0
VISUALSTYLE
  5
1088
102
{ACAD_REACTORS
330
1071
102
}
330
1071
100
AcDbVisualStyle
  2
Shaded with edges
 70
    26
177
     2
291
     0
 71
     2
176
     1
 72
     2
176
     1
 73
     1
176
     1
 90
        2
176
     1
 40
0.6
176
     1
 41
30.0
176
     1
 62
     5
 63
     7
421
 16777215
176
     1
 74
     1
176
     1
 91
       10
176
     1
 64
     7
176
     1
 65
   257
176
     1
 75
     2
176
     1
175
     1
176
     1
 42
1.0
176
     1
 92
        8
176
     1
 66
   257
176
     1
 43
1.0
176
     1
 76
     1
176
     1
 77
     6
176
     1
 78
     2
176
     1
 67
     7
176
     1
 79
     3
176
     1
170
     0
176
     1
171
     0
176
     1
290
     0
176
     1
 93
        5
176
     1
 44
0.0
176
     1
173
     0
176
     1
  0
VISUALSTYLE
  5
1085
102
{ACAD_REACTORS
330
1071
102
}
330
1071
100
AcDbVisualStyle
  2
Shades of Gray
 70
    23
177
     2
291
     0
 71
     2
176
     1
 72
     2
176
     1
 73
     3
176
     1
 90
        0
176
     1
 40
0.6
176
     1
 41
30.0
176
     1
 62
     5
 63
     7
421
 16777215
176
     1
 74
     2
176
     1
 91
        2
176
     1
 64
     7
176
     1
 65
     7
176
     1
 75
     1
176
     1
175
     1
176
     1
 42
40.0
176
     1
 92
        8
176
     1
 66
     7
176
     1
 43
1.0
176
     1
 76
     1
176
     1
 77
     6
176
     1
 78
     2
176
     1
 67
     7
176
     1
 79
     3
176
     1
170
     0
176
     1
171
     0
176
     1
290
     0
176
     1
 93
        1
176
     1
 44
0.0
176
     1
173
     0
176
     1
  0
VISUALSTYLE
  5
1086
102
{ACAD_REACTORS
330
1071
102
}
330
1071
100
AcDbVisualStyle
  2
Sketchy
 70
    24
177
     2
291
     0
 71
     1
176
     1
 72
     2
176
     1
 73
     2
176
     1
 90
        0
176
     1
 40
0.6
176
     1
 41
30.0
176
     1
 62
     5
 63
     7
421
 16777215
176
     1
 74
     2
176
     1
 91
        2
176
     1
 64
     7
176
     1
 65
     7
176
     1
 75
     1
176
     1
175
     1
176
     1
 42
40.0
176
     1
 92
       11
176
     1
 66
     7
176
     1
 43
1.0
176
     1
 76
     1
176
     1
 77
     6
176
     1
 78
     2
176
     1
 67
     7
176
     1
 79
     6
176
     1
170
     0
176
     1
171
     0
176
     1
290
     0
176
     1
 93
        1
176
     1
 44
0.0
176
     1
173
     0
176
     1
  0
VISUALSTYLE
  5
107E
102
{ACAD_REACTORS
330
1071
102
}
330
1071
100
AcDbVisualStyle
  2
Thicken
 70
    13
177
     2
291
     1
 71
     2
176
     1
 72
     2
176
     1
 73
     0
176
     1
 90
        0
176
     1
 40
0.6
176
     1
 41
30.0
176
     1
 62
     5
 63
     7
421
 16777215
176
     1
 74
     1
176
     1
 91
        4
176
     1
 64
     7
176
     1
 65
   257
176
     1
 75
     1
176
     1
175
     1
176
     1
 42
1.0
176
     1
 92
       12
176
     1
 66
     7
176
     1
 43
1.0
176
     1
 76
     1
176
     1
 77
     6
176
     1
 78
     2
176
     1
 67
     7
176
     1
 79
     5
176
     1
170
     0
176
     1
171
     0
176
     1
290
     0
176
     1
 93
        1
176
     1
 44
0.0
176
     1
173
     0
176
     1
  0
VISUALSTYLE
  5
1077
102
{ACAD_REACTORS
330
1071
102
}
330
1071
100
AcDbVisualStyle
  2
Wireframe
 70
     5
177
     2
291
     0
 71
     0
176
     1
 72
     2
176
     1
 73
     0
176
     1
 90
        0
176
     1
 40
0.6
176
     1
 41
30.0
176
     1
 62
     5
 63
     7
421
 16777215
176
     1
 74
     1
176
     1
 91
        4
176
     1
 64
     7
176
     1
 65
   257
176
     1
 75
     1
176
     1
175
     1
176
     1
 42
1.0
176
     1
 92
        0
176
     1
 66
   257
176
     1
 43
1.0
176
     1
 76
     1
176
     1
 77
     6
176
     1
 78
     2
176
     1
 67
     7
176
     1
 79
     3
176
     1
170
     0
176
     1
171
     0
176
     1
290
     0
176
     1
 93
        1
176
     1
 44
0.0
176
     1
173
     0
176
     1
  0
VISUALSTYLE
  5
1087
102
{ACAD_REACTORS
330
1071
102
}
330
1071
100
AcDbVisualStyle
  2
X-Ray
 70
    25
177
     2
291
     0
 71
     2
176
     1
 72
     2
176
     1
 73
     1
176
     1
 90
        1
176
     1
 40
0.5
176
     1
 41
30.0
176
     1
 62
     5
 63
     7
421
 16777215
176
     1
 74
     1
176
     1
 91
        0
176
     1
 64
     7
176
     1
 65
   257
176
     1
 75
     1
176
     1
175
     1
176
     1
 42
1.0
176
     1
 92
        8
176
     1
 66
     7
176
     1
 43
1.0
176
     1
 76
     1
176
     1
 77
     6
176
     1
 78
     2
176
     1
 67
     7
176
     1
 79
     3
176
     1
170
     0
176
     1
171
     0
176
     1
290
     0
176
     1
 93
       13
176
     1
 44
0.0
176
     1
173
     0
176
     1
  0
DICTIONARYVAR
  5
10BE
102
{ACAD_REACTORS
330
10BD
102
}
330
10BD
100
DictionaryVariables
280
     0
  1
1:1
  0
DICTIONARYVAR
  5
10C0
102
{ACAD_REACTORS
330
10BD
102
}
330
10BD
100
DictionaryVariables
280
     0
  1
Standard
  0
DICTIONARYVAR
  5
10BF
102
{ACAD_REACTORS
330
10BD
102
}
330
10BD
100
DictionaryVariables
280
     0
  1
Standard
  0
DICTIONARYVAR
  5
10C1
102
{ACAD_REACTORS
330
10BD
102
}
330
10BD
100
DictionaryVariables
280
     0
  1
0
  0
DICTIONARY
  5
3D96
330
10B7
100
AcDbDictionary
280
     1
281
     1
  3
ACAD_ROUNDTRIP_2008_TABLESTYLE_CELLSTYLEMAP
360
3D97
  0
CELLSTYLEMAP
  5
3D97
102
{ACAD_REACTORS
330
3D96
102
}
330
3D96
100
AcDbCellStyleMap
 90
        3
300
CELLSTYLE
  1
TABLEFORMAT_BEGIN
 90
        5
170
     1
 91
        0
 92
    32768
 62
   257
 93
        1
300
CONTENTFORMAT
  1
CONTENTFORMAT_BEGIN
 90
        0
 91
        0
 92
        4
 93
        0
300

 40
0.0
140
1.0
 94
        5
 62
     0
340
D
144
0.25
309
CONTENTFORMAT_END
171
     1
301
MARGIN
  1
CELLMARGIN_BEGIN
 40
0.06
 40
0.06
 40
0.06
 40
0.06
 40
0.06
 40
0.06
309
CELLMARGIN_END
 94
        6
 95
        1
302
GRIDFORMAT
  1
GRIDFORMAT_BEGIN
 90
        0
 91
        1
 62
     0
 92
       -2
340
F
 93
        0
 40
0.045
309
GRIDFORMAT_END
 95
        2
302
GRIDFORMAT
  1
GRIDFORMAT_BEGIN
 90
        0
 91
        1
 62
     0
 92
       -2
340
F
 93
        0
 40
0.045
309
GRIDFORMAT_END
 95
        4
302
GRIDFORMAT
  1
GRIDFORMAT_BEGIN
 90
        0
 91
        1
 62
     0
 92
       -2
340
F
 93
        0
 40
0.045
309
GRIDFORMAT_END
 95
        8
302
GRIDFORMAT
  1
GRIDFORMAT_BEGIN
 90
        0
 91
        1
 62
     0
 92
       -2
340
F
 93
        0
 40
0.045
309
GRIDFORMAT_END
 95
       16
302
GRIDFORMAT
  1
GRIDFORMAT_BEGIN
 90
        0
 91
        1
 62
     0
 92
       -2
340
F
 93
        0
 40
0.045
309
GRIDFORMAT_END
 95
       32
302
GRIDFORMAT
  1
GRIDFORMAT_BEGIN
 90
        0
 91
        1
 62
     0
 92
       -2
340
F
 93
        0
 40
0.045
309
GRIDFORMAT_END
309
TABLEFORMAT_END
  1
CELLSTYLE_BEGIN
 90
        1
 91
        1
300
_TITLE
309
CELLSTYLE_END
300
CELLSTYLE
  1
TABLEFORMAT_BEGIN
 90
        5
170
     1
 91
        0
 92
        0
 62
   257
 93
        1
300
CONTENTFORMAT
  1
CONTENTFORMAT_BEGIN
 90
        0
 91
        0
 92
        4
 93
        0
300

 40
0.0
140
1.0
 94
        5
 62
     0
340
D
144
0.18
309
CONTENTFORMAT_END
171
     1
301
MARGIN
  1
CELLMARGIN_BEGIN
 40
0.06
 40
0.06
 40
0.06
 40
0.06
 40
0.06
 40
0.06
309
CELLMARGIN_END
 94
        6
 95
        1
302
GRIDFORMAT
  1
GRIDFORMAT_BEGIN
 90
        0
 91
        1
 62
     0
 92
       -2
340
F
 93
        0
 40
0.045
309
GRIDFORMAT_END
 95
        2
302
GRIDFORMAT
  1
GRIDFORMAT_BEGIN
 90
        0
 91
        1
 62
     0
 92
       -2
340
F
 93
        0
 40
0.045
309
GRIDFORMAT_END
 95
        4
302
GRIDFORMAT
  1
GRIDFORMAT_BEGIN
 90
        0
 91
        1
 62
     0
 92
       -2
340
F
 93
        0
 40
0.045
309
GRIDFORMAT_END
 95
        8
302
GRIDFORMAT
  1
GRIDFORMAT_BEGIN
 90
        0
 91
        1
 62
     0
 92
       -2
340
F
 93
        0
 40
0.045
309
GRIDFORMAT_END
 95
       16
302
GRIDFORMAT
  1
GRIDFORMAT_BEGIN
 90
        0
 91
        1
 62
     0
 92
       -2
340
F
 93
        0
 40
0.045
309
GRIDFORMAT_END
 95
       32
302
GRIDFORMAT
  1
GRIDFORMAT_BEGIN
 90
        0
 91
        1
 62
     0
 92
       -2
340
F
 93
        0
 40
0.045
309
GRIDFORMAT_END
309
TABLEFORMAT_END
  1
CELLSTYLE_BEGIN
 90
        2
 91
        1
300
_HEADER
309
CELLSTYLE_END
300
CELLSTYLE
  1
TABLEFORMAT_BEGIN
 90
        5
170
     1
 91
        0
 92
        0
 62
   257
 93
        1
300
CONTENTFORMAT
  1
CONTENTFORMAT_BEGIN
 90
        0
 91
        0
 92
        4
 93
        0
300

 40
0.0
140
1.0
 94
        2
 62
     0
340
D
144
0.18
309
CONTENTFORMAT_END
171
     1
301
MARGIN
  1
CELLMARGIN_BEGIN
 40
0.06
 40
0.06
 40
0.06
 40
0.06
 40
0.06
 40
0.06
309
CELLMARGIN_END
 94
        6
 95
        1
302
GRIDFORMAT
  1
GRIDFORMAT_BEGIN
 90
        0
 91
        1
 62
     0
 92
       -2
340
F
 93
        0
 40
0.045
309
GRIDFORMAT_END
 95
        2
302
GRIDFORMAT
  1
GRIDFORMAT_BEGIN
 90
        0
 91
        1
 62
     0
 92
       -2
340
F
 93
        0
 40
0.045
309
GRIDFORMAT_END
 95
        4
302
GRIDFORMAT
  1
GRIDFORMAT_BEGIN
 90
        0
 91
        1
 62
     0
 92
       -2
340
F
 93
        0
 40
0.045
309
GRIDFORMAT_END
 95
        8
302
GRIDFORMAT
  1
GRIDFORMAT_BEGIN
 90
        0
 91
        1
 62
     0
 92
       -2
340
F
 93
        0
 40
0.045
309
GRIDFORMAT_END
 95
       16
302
GRIDFORMAT
  1
GRIDFORMAT_BEGIN
 90
        0
 91
        1
 62
     0
 92
       -2
340
F
 93
        0
 40
0.045
309
GRIDFORMAT_END
 95
       32
302
GRIDFORMAT
  1
GRIDFORMAT_BEGIN
 90
        0
 91
        1
 62
     0
 92
       -2
340
F
 93
        0
 40
0.045
309
GRIDFORMAT_END
309
TABLEFORMAT_END
  1
CELLSTYLE_BEGIN
 90
        3
 91
        2
300
_DATA
309
CELLSTYLE_END
  0
ENDSEC
  0
EOF
