  0
SECTION
  2
HEADER
  9
$ACADVER
  1
AC1012
  9
$DWGCODEPAGE
  3
dos932
  9
$INSBASE
 10
0.0
 20
0.0
 30
0.0
  9
$EXTMIN
 10
176.8269805649333
 20
178.6948939574742
 30
-7.392603129315311
  9
$EXTMAX
 10
759.5692841171089
 20
888.0097068399077
 30
3.905493996131585
  9
$LIMMIN
 10
0.0
 20
0.0
  9
$LIMMAX
 10
420.0
 20
297.0
  9
$ORTHOMODE
 70
     0
  9
$REGENMODE
 70
     1
  9
$FILLMODE
 70
     1
  9
$QTEXTMODE
 70
     0
  9
$MIRRTEXT
 70
     1
  9
$DRAGMODE
 70
     2
  9
$LTSCALE
 40
1.0
  9
$OSMODE
 70
    37
  9
$ATTMODE
 70
     1
  9
$TEXTSIZE
 40
7.0
  9
$TRACEWID
 40
0.05
  9
$TEXTSTYLE
  7
STANDARD
  9
$CLAYER
  8
L-ZISSEN
  9
$CELTYPE
  6
BYLAYER
  9
$CECOLOR
 62
   256
  9
$CELTSCALE
 40
1.0
  9
$DELOBJ
 70
     1
  9
$DISPSILH
 70
     0
  9
$DIMSCALE
 40
5.0
  9
$DIMASZ
 40
2.0
  9
$DIMEXO
 40
1.0
  9
$DIMDLI
 40
0.38
  9
$DIMRND
 40
0.0
  9
$DIMDLE
 40
0.0
  9
$DIMEXE
 40
1.0
  9
$DIMTP
 40
0.0
  9
$DIMTM
 40
0.0
  9
$DIMTXT
 40
2.799999999999999
  9
$DIMCEN
 40
0.09
  9
$DIMTSZ
 40
0.0
  9
$DIMTOL
 70
     0
  9
$DIMLIM
 70
     0
  9
$DIMTIH
 70
     0
  9
$DIMTOH
 70
     0
  9
$DIMSE1
 70
     0
  9
$DIMSE2
 70
     0
  9
$DIMTAD
 70
     1
  9
$DIMZIN
 70
     8
  9
$DIMBLK
  1

  9
$DIMASO
 70
     1
  9
$DIMSHO
 70
     0
  9
$DIMPOST
  1

  9
$DIMAPOST
  1

  9
$DIMALT
 70
     0
  9
$DIMALTD
 70
     2
  9
$DIMALTF
 40
25.4
  9
$DIMLFAC
 40
1.0
  9
$DIMTOFL
 70
     1
  9
$DIMTVP
 40
0.0
  9
$DIMTIX
 70
     1
  9
$DIMSOXD
 70
     0
  9
$DIMSAH
 70
     0
  9
$DIMBLK1
  1

  9
$DIMBLK2
  1

  9
$DIMSTYLE
  2
STANDARD
  9
$DIMCLRD
 70
     0
  9
$DIMCLRE
 70
     0
  9
$DIMCLRT
 70
     0
  9
$DIMTFAC
 40
1.0
  9
$DIMGAP
 40
1.0
  9
$DIMJUST
 70
     0
  9
$DIMSD1
 70
     0
  9
$DIMSD2
 70
     0
  9
$DIMTOLJ
 70
     1
  9
$DIMTZIN
 70
     0
  9
$DIMALTZ
 70
     0
  9
$DIMALTTZ
 70
     0
  9
$DIMFIT
 70
     3
  9
$DIMUPT
 70
     0
  9
$DIMUNIT
 70
     2
  9
$DIMDEC
 70
     4
  9
$DIMTDEC
 70
     4
  9
$DIMALTU
 70
     2
  9
$DIMALTTD
 70
     2
  9
$DIMTXSTY
  7
STANDARD
  9
$DIMAUNIT
 70
     0
  9
$LUNITS
 70
     2
  9
$LUPREC
 70
     4
  9
$SKETCHINC
 40
0.1
  9
$FILLETRAD
 40
10.0
  9
$AUNITS
 70
     0
  9
$AUPREC
 70
     0
  9
$MENU
  1
acad
  9
$ELEVATION
 40
0.0
  9
$PELEVATION
 40
0.0
  9
$THICKNESS
 40
0.0
  9
$LIMCHECK
 70
     0
  9
$BLIPMODE
 70
     0
  9
$CHAMFERA
 40
0.0
  9
$CHAMFERB
 40
0.0
  9
$CHAMFERC
 40
0.0
  9
$CHAMFERD
 40
0.0
  9
$SKPOLY
 70
     0
  9
$TDCREATE
 40
2450214.232181597
  9
$TDUPDATE
 40
2453250.492234722
  9
$TDINDWG
 40
8.8687383449
  9
$TDUSRTIMER
 40
8.8687383449
  9
$USRTIMER
 70
     1
  9
$ANGBASE
 50
0.0
  9
$ANGDIR
 70
     0
  9
$PDMODE
 70
     0
  9
$PDSIZE
 40
0.0
  9
$PLINEWID
 40
0.0
  9
$COORDS
 70
     0
  9
$SPLFRAME
 70
     0
  9
$SPLINETYPE
 70
     6
  9
$SPLINESEGS
 70
     8
  9
$ATTDIA
 70
     0
  9
$ATTREQ
 70
     1
  9
$HANDLING
 70
-16383
  9
$HANDSEED
  5
4A7
  9
$SURFTAB1
 70
     6
  9
$SURFTAB2
 70
     6
  9
$SURFTYPE
 70
     6
  9
$SURFU
 70
     6
  9
$SURFV
 70
     6
  9
$UCSNAME
  2

  9
$UCSORG
 10
0.0
 20
0.0
 30
0.0
  9
$UCSXDIR
 10
1.0
 20
0.0
 30
0.0
  9
$UCSYDIR
 10
0.0
 20
1.0
 30
0.0
  9
$PUCSNAME
  2

  9
$PUCSORG
 10
0.0
 20
0.0
 30
0.0
  9
$PUCSXDIR
 10
1.0
 20
0.0
 30
0.0
  9
$PUCSYDIR
 10
0.0
 20
1.0
 30
0.0
  9
$USERI1
 70
     0
  9
$USERI2
 70
     0
  9
$USERI3
 70
     0
  9
$USERI4
 70
     0
  9
$USERI5
 70
     0
  9
$USERR1
 40
0.0
  9
$USERR2
 40
0.0
  9
$USERR3
 40
0.0
  9
$USERR4
 40
0.0
  9
$USERR5
 40
0.0
  9
$WORLDVIEW
 70
     1
  9
$SHADEDGE
 70
     3
  9
$SHADEDIF
 70
    70
  9
$TILEMODE
 70
     1
  9
$MAXACTVP
 70
    16
  9
$PINSBASE
 10
0.0
 20
0.0
 30
0.0
  9
$PLIMCHECK
 70
     0
  9
$PEXTMIN
 10
1.000000000000000E+20
 20
1.000000000000000E+20
 30
1.000000000000000E+20
  9
$PEXTMAX
 10
-1.000000000000000E+20
 20
-1.000000000000000E+20
 30
-1.000000000000000E+20
  9
$PLIMMIN
 10
0.0
 20
0.0
  9
$PLIMMAX
 10
12.0
 20
9.0
  9
$UNITMODE
 70
     0
  9
$VISRETAIN
 70
     0
  9
$PLINEGEN
 70
     0
  9
$PSLTSCALE
 70
     0
  9
$TREEDEPTH
 70
  3020
  9
$PICKSTYLE
 70
     1
  9
$CMLSTYLE
  2
STANDARD
  9
$CMLJUST
 70
     0
  9
$CMLSCALE
 40
1.0
  9
$SAVEIMAGES
 70
     1
  0
ENDSEC
  0
SECTION
  2
CLASSES
  0
CLASS
  1
LWPOLYLINE
  2
AcDbPolyline
  3
AutoCAD 2000
 90
    32768
280
     0
281
     1
  0
CLASS
  1
DICTIONARYVAR
  2
AcDbDictionaryVar
  3
AutoCAD 2000
 90
    32768
280
     0
281
     0
  0
CLASS
  1
HATCH
  2
AcDbHatch
  3
AutoCAD 2000
 90
    32768
280
     0
281
     1
  0
CLASS
  1
ACDBDICTIONARYWDFLT
  2
AcDbDictionaryWithDefault
  3
AutoCAD 2000
 90
    32768
280
     0
281
     0
  0
CLASS
  1
ACDBPLACEHOLDER
  2
AcDbPlaceHolder
  3
AutoCAD 2000
 90
    32768
280
     0
281
     0
  0
CLASS
  1
LAYOUT
  2
AcDbLayout
  3
AutoCAD 2000
 90
    32768
280
     0
281
     0
  0
CLASS
  1
LONG_TRANSACTION
  2
AcDbLongTransaction
  3
AutoCAD 2000
 90
    32768
280
     0
281
     0
  0
CLASS
  1
LWPOLYLINE
  2
AcDbPolyline
  3
AutoCAD 2000
 90
    32768
280
     0
281
     1
  0
CLASS
  1
HATCH
  2
AcDbHatch
  3
AutoCAD 2000
 90
    32768
280
     0
281
     1
  0
CLASS
  1
XRECORD
  2
AcDbXrecord
  3
AutoCAD 2000
 90
    32768
280
     0
281
     0
  0
CLASS
  1
LONG_TRANSACTION
  2
AcDbLongTransaction
  3
AutoCAD 2000
 90
    32768
280
     0
281
     0
  0
CLASS
  1
LWPOLYLINE
  2
AcDbPolyline
  3
AutoCAD 2000
 90
    32768
280
     0
281
     1
  0
CLASS
  1
HATCH
  2
AcDbHatch
  3
AutoCAD 2000
 90
    32768
280
     0
281
     1
  0
CLASS
  1
XRECORD
  2
AcDbXrecord
  3
AutoCAD 2000
 90
    32768
280
     0
281
     0
  0
CLASS
  1
LONG_TRANSACTION
  2
AcDbLongTransaction
  3
AutoCAD 2000
 90
    32768
280
     0
281
     0
  0
CLASS
  1
LWPOLYLINE
  2
AcDbPolyline
  3
AutoCAD 2000
 90
    32768
280
     0
281
     1
  0
CLASS
  1
HATCH
  2
AcDbHatch
  3
AutoCAD 2000
 90
    32768
280
     0
281
     1
  0
CLASS
  1
XRECORD
  2
AcDbXrecord
  3
AutoCAD 2000
 90
    32768
280
     0
281
     0
  0
CLASS
  1
LONG_TRANSACTION
  2
AcDbLongTransaction
  3
AutoCAD 2000
 90
    32768
280
     0
281
     0
  0
CLASS
  1
LWPOLYLINE
  2
AcDbPolyline
  3
AutoCAD 2000
 90
    32768
280
     0
281
     1
  0
CLASS
  1
HATCH
  2
AcDbHatch
  3
AutoCAD 2000
 90
    32768
280
     0
281
     1
  0
CLASS
  1
XRECORD
  2
AcDbXrecord
  3
AutoCAD 2000
 90
    32768
280
     0
281
     0
  0
CLASS
  1
LONG_TRANSACTION
  2
AcDbLongTransaction
  3
AutoCAD 2000
 90
    32768
280
     0
281
     0
  0
CLASS
  1
LWPOLYLINE
  2
AcDbPolyline
  3
AutoCAD 2000
 90
    32768
280
     0
281
     1
  0
CLASS
  1
HATCH
  2
AcDbHatch
  3
AutoCAD 2000
 90
    32768
280
     0
281
     1
  0
CLASS
  1
XRECORD
  2
AcDbXrecord
  3
AutoCAD 2000
 90
    32768
280
     0
281
     0
  0
CLASS
  1
LONG_TRANSACTION
  2
AcDbLongTransaction
  3
AutoCAD 2000
 90
    32768
280
     0
281
     0
  0
CLASS
  1
LWPOLYLINE
  2
AcDbPolyline
  3
AutoCAD 2000
 90
    32768
280
     0
281
     1
  0
CLASS
  1
HATCH
  2
AcDbHatch
  3
AutoCAD 2000
 90
    32768
280
     0
281
     1
  0
CLASS
  1
XRECORD
  2
AcDbXrecord
  3
AutoCAD 2000
 90
    32768
280
     0
281
     0
  0
CLASS
  1
LONG_TRANSACTION
  2
AcDbLongTransaction
  3
AutoCAD 2000
 90
    32768
280
     0
281
     0
  0
CLASS
  1
LWPOLYLINE
  2
AcDbPolyline
  3
AutoCAD 2000
 90
    32768
280
     0
281
     1
  0
CLASS
  1
HATCH
  2
AcDbHatch
  3
AutoCAD 2000
 90
    32768
280
     0
281
     1
  0
CLASS
  1
XRECORD
  2
AcDbXrecord
  3
AutoCAD 2000
 90
    32768
280
     0
281
     0
  0
CLASS
  1
LONG_TRANSACTION
  2
AcDbLongTransaction
  3
AutoCAD 2000
 90
    32768
280
     0
281
     0
  0
CLASS
  1
LWPOLYLINE
  2
AcDbPolyline
  3
AutoCAD 2000
 90
    32768
280
     0
281
     1
  0
CLASS
  1
HATCH
  2
AcDbHatch
  3
AutoCAD 2000
 90
    32768
280
     0
281
     1
  0
CLASS
  1
XRECORD
  2
AcDbXrecord
  3
AutoCAD 2000
 90
    32768
280
     0
281
     0
  0
CLASS
  1
LONG_TRANSACTION
  2
AcDbLongTransaction
  3
AutoCAD 2000
 90
    32768
280
     0
281
     0
  0
CLASS
  1
LWPOLYLINE
  2
AcDbPolyline
  3
AutoCAD 2000
 90
    32768
280
     0
281
     1
  0
CLASS
  1
HATCH
  2
AcDbHatch
  3
AutoCAD 2000
 90
    32768
280
     0
281
     1
  0
CLASS
  1
XRECORD
  2
AcDbXrecord
  3
AutoCAD 2000
 90
    32768
280
     0
281
     0
  0
CLASS
  1
LONG_TRANSACTION
  2
AcDbLongTransaction
  3
AutoCAD 2000
 90
    32768
280
     0
281
     0
  0
CLASS
  1
LWPOLYLINE
  2
AcDbPolyline
  3
AutoCAD 2000
 90
    32768
280
     0
281
     1
  0
CLASS
  1
HATCH
  2
AcDbHatch
  3
AutoCAD 2000
 90
    32768
280
     0
281
     1
  0
CLASS
  1
XRECORD
  2
AcDbXrecord
  3
AutoCAD 2000
 90
    32768
280
     0
281
     0
  0
CLASS
  1
LONG_TRANSACTION
  2
AcDbLongTransaction
  3
AutoCAD 2000
 90
    32768
280
     0
281
     0
  0
CLASS
  1
LWPOLYLINE
  2
AcDbPolyline
  3
AutoCAD 2000
 90
    32768
280
     0
281
     1
  0
CLASS
  1
HATCH
  2
AcDbHatch
  3
AutoCAD 2000
 90
    32768
280
     0
281
     1
  0
CLASS
  1
XRECORD
  2
AcDbXrecord
  3
AutoCAD 2000
 90
    32768
280
     0
281
     0
  0
CLASS
  1
LONG_TRANSACTION
  2
AcDbLongTransaction
  3
AutoCAD 2000
 90
    32768
280
     0
281
     0
  0
CLASS
  1
LWPOLYLINE
  2
AcDbPolyline
  3
AutoCAD 2000
 90
    32768
280
     0
281
     1
  0
CLASS
  1
HATCH
  2
AcDbHatch
  3
AutoCAD 2000
 90
    32768
280
     0
281
     1
  0
CLASS
  1
XRECORD
  2
AcDbXrecord
  3
AutoCAD 2000
 90
    32768
280
     0
281
     0
  0
CLASS
  1
LONG_TRANSACTION
  2
AcDbLongTransaction
  3
AutoCAD 2000
 90
    32768
280
     0
281
     0
  0
CLASS
  1
LWPOLYLINE
  2
AcDbPolyline
  3
AutoCAD 2000
 90
    32768
280
     0
281
     1
  0
CLASS
  1
HATCH
  2
AcDbHatch
  3
AutoCAD 2000
 90
    32768
280
     0
281
     1
  0
CLASS
  1
XRECORD
  2
AcDbXrecord
  3
AutoCAD 2000
 90
    32768
280
     0
281
     0
  0
CLASS
  1
LONG_TRANSACTION
  2
AcDbLongTransaction
  3
AutoCAD 2000
 90
    32768
280
     0
281
     0
  0
CLASS
  1
LWPOLYLINE
  2
AcDbPolyline
  3
AutoCAD 2000
 90
    32768
280
     0
281
     1
  0
CLASS
  1
HATCH
  2
AcDbHatch
  3
AutoCAD 2000
 90
    32768
280
     0
281
     1
  0
CLASS
  1
XRECORD
  2
AcDbXrecord
  3
AutoCAD 2000
 90
    32768
280
     0
281
     0
  0
CLASS
  1
LONG_TRANSACTION
  2
AcDbLongTransaction
  3
AutoCAD 2000
 90
    32768
280
     0
281
     0
  0
CLASS
  1
LWPOLYLINE
  2
AcDbPolyline
  3
AutoCAD 2000
 90
    32768
280
     0
281
     1
  0
CLASS
  1
HATCH
  2
AcDbHatch
  3
AutoCAD 2000
 90
    32768
280
     0
281
     1
  0
CLASS
  1
XRECORD
  2
AcDbXrecord
  3
AutoCAD 2000
 90
    32768
280
     0
281
     0
  0
CLASS
  1
LONG_TRANSACTION
  2
AcDbLongTransaction
  3
AutoCAD 2000
 90
    32768
280
     0
281
     0
  0
CLASS
  1
LWPOLYLINE
  2
AcDbPolyline
  3
AutoCAD 2000
 90
    32768
280
     0
281
     1
  0
CLASS
  1
HATCH
  2
AcDbHatch
  3
AutoCAD 2000
 90
    32768
280
     0
281
     1
  0
CLASS
  1
XRECORD
  2
AcDbXrecord
  3
AutoCAD 2000
 90
    32768
280
     0
281
     0
  0
CLASS
  1
LONG_TRANSACTION
  2
AcDbLongTransaction
  3
AutoCAD 2000
 90
    32768
280
     0
281
     0
  0
CLASS
  1
LWPOLYLINE
  2
AcDbPolyline
  3
AutoCAD 2000
 90
    32768
280
     0
281
     1
  0
CLASS
  1
HATCH
  2
AcDbHatch
  3
AutoCAD 2000
 90
    32768
280
     0
281
     1
  0
CLASS
  1
XRECORD
  2
AcDbXrecord
  3
AutoCAD 2000
 90
    32768
280
     0
281
     0
  0
CLASS
  1
LONG_TRANSACTION
  2
AcDbLongTransaction
  3
AutoCAD 2000
 90
    32768
280
     0
281
     0
  0
CLASS
  1
LWPOLYLINE
  2
AcDbPolyline
  3
AutoCAD 2000
 90
    32768
280
     0
281
     1
  0
CLASS
  1
HATCH
  2
AcDbHatch
  3
AutoCAD 2000
 90
    32768
280
     0
281
     1
  0
CLASS
  1
XRECORD
  2
AcDbXrecord
  3
AutoCAD 2000
 90
    32768
280
     0
281
     0
  0
CLASS
  1
LONG_TRANSACTION
  2
AcDbLongTransaction
  3
AutoCAD 2000
 90
    32768
280
     0
281
     0
  0
CLASS
  1
LWPOLYLINE
  2
AcDbPolyline
  3
AutoCAD 2000
 90
    32768
280
     0
281
     1
  0
CLASS
  1
HATCH
  2
AcDbHatch
  3
AutoCAD 2000
 90
    32768
280
     0
281
     1
  0
CLASS
  1
XRECORD
  2
AcDbXrecord
  3
AutoCAD 2000
 90
    32768
280
     0
281
     0
  0
CLASS
  1
LONG_TRANSACTION
  2
AcDbLongTransaction
  3
AutoCAD 2000
 90
    32768
280
     0
281
     0
  0
CLASS
  1
LWPOLYLINE
  2
AcDbPolyline
  3
AutoCAD 2000
 90
    32768
280
     0
281
     1
  0
CLASS
  1
HATCH
  2
AcDbHatch
  3
AutoCAD 2000
 90
    32768
280
     0
281
     1
  0
CLASS
  1
XRECORD
  2
AcDbXrecord
  3
AutoCAD 2000
 90
    32768
280
     0
281
     0
  0
CLASS
  1
LONG_TRANSACTION
  2
AcDbLongTransaction
  3
AutoCAD 2000
 90
    32768
280
     0
281
     0
  0
CLASS
  1
LWPOLYLINE
  2
AcDbPolyline
  3
AutoCAD 2000
 90
    32768
280
     0
281
     1
  0
CLASS
  1
HATCH
  2
AcDbHatch
  3
AutoCAD 2000
 90
    32768
280
     0
281
     1
  0
CLASS
  1
XRECORD
  2
AcDbXrecord
  3
AutoCAD 2000
 90
    32768
280
     0
281
     0
  0
CLASS
  1
LONG_TRANSACTION
  2
AcDbLongTransaction
  3
AutoCAD 2000
 90
    32768
280
     0
281
     0
  0
CLASS
  1
LWPOLYLINE
  2
AcDbPolyline
  3
AutoCAD 2000
 90
    32768
280
     0
281
     1
  0
CLASS
  1
HATCH
  2
AcDbHatch
  3
AutoCAD 2000
 90
    32768
280
     0
281
     1
  0
CLASS
  1
XRECORD
  2
AcDbXrecord
  3
AutoCAD 2000
 90
    32768
280
     0
281
     0
  0
CLASS
  1
LONG_TRANSACTION
  2
AcDbLongTransaction
  3
AutoCAD 2000
 90
    32768
280
     0
281
     0
  0
CLASS
  1
LWPOLYLINE
  2
AcDbPolyline
  3
AutoCAD 2000
 90
    32768
280
     0
281
     1
  0
CLASS
  1
HATCH
  2
AcDbHatch
  3
AutoCAD 2000
 90
    32768
280
     0
281
     1
  0
CLASS
  1
XRECORD
  2
AcDbXrecord
  3
AutoCAD 2000
 90
    32768
280
     0
281
     0
  0
CLASS
  1
LONG_TRANSACTION
  2
AcDbLongTransaction
  3
AutoCAD 2000
 90
    32768
280
     0
281
     0
  0
CLASS
  1
LWPOLYLINE
  2
AcDbPolyline
  3
AutoCAD 2000
 90
    32768
280
     0
281
     1
  0
CLASS
  1
HATCH
  2
AcDbHatch
  3
AutoCAD 2000
 90
    32768
280
     0
281
     1
  0
CLASS
  1
XRECORD
  2
AcDbXrecord
  3
AutoCAD 2000
 90
    32768
280
     0
281
     0
  0
CLASS
  1
LONG_TRANSACTION
  2
AcDbLongTransaction
  3
AutoCAD 2000
 90
    32768
280
     0
281
     0
  0
CLASS
  1
LWPOLYLINE
  2
AcDbPolyline
  3
AutoCAD 2000
 90
    32768
280
     0
281
     1
  0
CLASS
  1
HATCH
  2
AcDbHatch
  3
AutoCAD 2000
 90
    32768
280
     0
281
     1
  0
CLASS
  1
XRECORD
  2
AcDbXrecord
  3
AutoCAD 2000
 90
    32768
280
     0
281
     0
  0
CLASS
  1
LONG_TRANSACTION
  2
AcDbLongTransaction
  3
AutoCAD 2000
 90
    32768
280
     0
281
     0
  0
CLASS
  1
LWPOLYLINE
  2
AcDbPolyline
  3
AutoCAD 2000
 90
    32768
280
     0
281
     1
  0
CLASS
  1
HATCH
  2
AcDbHatch
  3
AutoCAD 2000
 90
    32768
280
     0
281
     1
  0
CLASS
  1
XRECORD
  2
AcDbXrecord
  3
AutoCAD 2000
 90
    32768
280
     0
281
     0
  0
CLASS
  1
LONG_TRANSACTION
  2
AcDbLongTransaction
  3
AutoCAD 2000
 90
    32768
280
     0
281
     0
  0
CLASS
  1
LWPOLYLINE
  2
AcDbPolyline
  3
AutoCAD 2000
 90
    32768
280
     0
281
     1
  0
CLASS
  1
HATCH
  2
AcDbHatch
  3
AutoCAD 2000
 90
    32768
280
     0
281
     1
  0
CLASS
  1
XRECORD
  2
AcDbXrecord
  3
AutoCAD 2000
 90
    32768
280
     0
281
     0
  0
CLASS
  1
LONG_TRANSACTION
  2
AcDbLongTransaction
  3
AutoCAD 2000
 90
    32768
280
     0
281
     0
  0
CLASS
  1
LWPOLYLINE
  2
AcDbPolyline
  3
AutoCAD 2000
 90
    32768
280
     0
281
     1
  0
CLASS
  1
HATCH
  2
AcDbHatch
  3
AutoCAD 2000
 90
    32768
280
     0
281
     1
  0
CLASS
  1
XRECORD
  2
AcDbXrecord
  3
AutoCAD 2000
 90
    32768
280
     0
281
     0
  0
CLASS
  1
LONG_TRANSACTION
  2
AcDbLongTransaction
  3
AutoCAD 2000
 90
    32768
280
     0
281
     0
  0
CLASS
  1
LWPOLYLINE
  2
AcDbPolyline
  3
AutoCAD 2000
 90
    32768
280
     0
281
     1
  0
CLASS
  1
HATCH
  2
AcDbHatch
  3
AutoCAD 2000
 90
    32768
280
     0
281
     1
  0
CLASS
  1
XRECORD
  2
AcDbXrecord
  3
AutoCAD 2000
 90
    32768
280
     0
281
     0
  0
CLASS
  1
LONG_TRANSACTION
  2
AcDbLongTransaction
  3
AutoCAD 2000
 90
    32768
280
     0
281
     0
  0
CLASS
  1
LWPOLYLINE
  2
AcDbPolyline
  3
AutoCAD 2000
 90
    32768
280
     0
281
     1
  0
CLASS
  1
HATCH
  2
AcDbHatch
  3
AutoCAD 2000
 90
    32768
280
     0
281
     1
  0
CLASS
  1
XRECORD
  2
AcDbXrecord
  3
AutoCAD 2000
 90
    32768
280
     0
281
     0
  0
CLASS
  1
LONG_TRANSACTION
  2
AcDbLongTransaction
  3
AutoCAD 2000
 90
    32768
280
     0
281
     0
  0
CLASS
  1
LWPOLYLINE
  2
AcDbPolyline
  3
AutoCAD 2000
 90
    32768
280
     0
281
     1
  0
CLASS
  1
HATCH
  2
AcDbHatch
  3
AutoCAD 2000
 90
    32768
280
     0
281
     1
  0
CLASS
  1
XRECORD
  2
AcDbXrecord
  3
AutoCAD 2000
 90
    32768
280
     0
281
     0
  0
CLASS
  1
LONG_TRANSACTION
  2
AcDbLongTransaction
  3
AutoCAD 2000
 90
    32768
280
     0
281
     0
  0
CLASS
  1
LWPOLYLINE
  2
AcDbPolyline
  3
AutoCAD 2000
 90
    32768
280
     0
281
     1
  0
CLASS
  1
HATCH
  2
AcDbHatch
  3
AutoCAD 2000
 90
    32768
280
     0
281
     1
  0
CLASS
  1
XRECORD
  2
AcDbXrecord
  3
AutoCAD 2000
 90
    32768
280
     0
281
     0
  0
CLASS
  1
LONG_TRANSACTION
  2
AcDbLongTransaction
  3
AutoCAD 2000
 90
    32768
280
     0
281
     0
  0
CLASS
  1
LWPOLYLINE
  2
AcDbPolyline
  3
AutoCAD 2000
 90
    32768
280
     0
281
     1
  0
CLASS
  1
HATCH
  2
AcDbHatch
  3
AutoCAD 2000
 90
    32768
280
     0
281
     1
  0
CLASS
  1
XRECORD
  2
AcDbXrecord
  3
AutoCAD 2000
 90
    32768
280
     0
281
     0
  0
CLASS
  1
LONG_TRANSACTION
  2
AcDbLongTransaction
  3
AutoCAD 2000
 90
    32768
280
     0
281
     0
  0
CLASS
  1
LWPOLYLINE
  2
AcDbPolyline
  3
AutoCAD 2000
 90
    32768
280
     0
281
     1
  0
CLASS
  1
HATCH
  2
AcDbHatch
  3
AutoCAD 2000
 90
    32768
280
     0
281
     1
  0
CLASS
  1
XRECORD
  2
AcDbXrecord
  3
AutoCAD 2000
 90
    32768
280
     0
281
     0
  0
CLASS
  1
LONG_TRANSACTION
  2
AcDbLongTransaction
  3
AutoCAD 2000
 90
    32768
280
     0
281
     0
  0
CLASS
  1
LWPOLYLINE
  2
AcDbPolyline
  3
AutoCAD 2000
 90
    32768
280
     0
281
     1
  0
CLASS
  1
HATCH
  2
AcDbHatch
  3
AutoCAD 2000
 90
    32768
280
     0
281
     1
  0
CLASS
  1
XRECORD
  2
AcDbXrecord
  3
AutoCAD 2000
 90
    32768
280
     0
281
     0
  0
CLASS
  1
LONG_TRANSACTION
  2
AcDbLongTransaction
  3
AutoCAD 2000
 90
    32768
280
     0
281
     0
  0
CLASS
  1
LWPOLYLINE
  2
AcDbPolyline
  3
AutoCAD 2000
 90
    32768
280
     0
281
     1
  0
CLASS
  1
HATCH
  2
AcDbHatch
  3
AutoCAD 2000
 90
    32768
280
     0
281
     1
  0
CLASS
  1
XRECORD
  2
AcDbXrecord
  3
AutoCAD 2000
 90
    32768
280
     0
281
     0
  0
CLASS
  1
LONG_TRANSACTION
  2
AcDbLongTransaction
  3
AutoCAD 2000
 90
    32768
280
     0
281
     0
  0
CLASS
  1
LWPOLYLINE
  2
AcDbPolyline
  3
AutoCAD 2000
 90
    32768
280
     0
281
     1
  0
CLASS
  1
HATCH
  2
AcDbHatch
  3
AutoCAD 2000
 90
    32768
280
     0
281
     1
  0
CLASS
  1
XRECORD
  2
AcDbXrecord
  3
AutoCAD 2000
 90
    32768
280
     0
281
     0
  0
CLASS
  1
LONG_TRANSACTION
  2
AcDbLongTransaction
  3
AutoCAD 2000
 90
    32768
280
     0
281
     0
  0
CLASS
  1
LWPOLYLINE
  2
AcDbPolyline
  3
AutoCAD 2000
 90
    32768
280
     0
281
     1
  0
CLASS
  1
HATCH
  2
AcDbHatch
  3
AutoCAD 2000
 90
    32768
280
     0
281
     1
  0
CLASS
  1
XRECORD
  2
AcDbXrecord
  3
AutoCAD 2000
 90
    32768
280
     0
281
     0
  0
CLASS
  1
LONG_TRANSACTION
  2
AcDbLongTransaction
  3
AutoCAD 2000
 90
    32768
280
     0
281
     0
  0
CLASS
  1
LWPOLYLINE
  2
AcDbPolyline
  3
AutoCAD 2000
 90
    32768
280
     0
281
     1
  0
CLASS
  1
HATCH
  2
AcDbHatch
  3
AutoCAD 2000
 90
    32768
280
     0
281
     1
  0
CLASS
  1
XRECORD
  2
AcDbXrecord
  3
AutoCAD 2000
 90
    32768
280
     0
281
     0
  0
CLASS
  1
LONG_TRANSACTION
  2
AcDbLongTransaction
  3
AutoCAD 2000
 90
    32768
280
     0
281
     0
  0
CLASS
  1
LWPOLYLINE
  2
AcDbPolyline
  3
AutoCAD 2000
 90
    32768
280
     0
281
     1
  0
CLASS
  1
HATCH
  2
AcDbHatch
  3
AutoCAD 2000
 90
    32768
280
     0
281
     1
  0
CLASS
  1
XRECORD
  2
AcDbXrecord
  3
AutoCAD 2000
 90
    32768
280
     0
281
     0
  0
CLASS
  1
LONG_TRANSACTION
  2
AcDbLongTransaction
  3
AutoCAD 2000
 90
    32768
280
     0
281
     0
  0
CLASS
  1
LWPOLYLINE
  2
AcDbPolyline
  3
AutoCAD 2000
 90
    32768
280
     0
281
     1
  0
CLASS
  1
HATCH
  2
AcDbHatch
  3
AutoCAD 2000
 90
    32768
280
     0
281
     1
  0
CLASS
  1
XRECORD
  2
AcDbXrecord
  3
AutoCAD 2000
 90
    32768
280
     0
281
     0
  0
CLASS
  1
LONG_TRANSACTION
  2
AcDbLongTransaction
  3
AutoCAD 2000
 90
    32768
280
     0
281
     0
  0
CLASS
  1
LWPOLYLINE
  2
AcDbPolyline
  3
AutoCAD 2000
 90
    32768
280
     0
281
     1
  0
CLASS
  1
HATCH
  2
AcDbHatch
  3
AutoCAD 2000
 90
    32768
280
     0
281
     1
  0
CLASS
  1
XRECORD
  2
AcDbXrecord
  3
AutoCAD 2000
 90
    32768
280
     0
281
     0
  0
CLASS
  1
LONG_TRANSACTION
  2
AcDbLongTransaction
  3
AutoCAD 2000
 90
    32768
280
     0
281
     0
  0
CLASS
  1
LWPOLYLINE
  2
AcDbPolyline
  3
AutoCAD 2000
 90
    32768
280
     0
281
     1
  0
CLASS
  1
HATCH
  2
AcDbHatch
  3
AutoCAD 2000
 90
    32768
280
     0
281
     1
  0
CLASS
  1
XRECORD
  2
AcDbXrecord
  3
AutoCAD 2000
 90
    32768
280
     0
281
     0
  0
CLASS
  1
LONG_TRANSACTION
  2
AcDbLongTransaction
  3
AutoCAD 2000
 90
    32768
280
     0
281
     0
  0
CLASS
  1
LWPOLYLINE
  2
AcDbPolyline
  3
AutoCAD 2000
 90
    32768
280
     0
281
     1
  0
CLASS
  1
HATCH
  2
AcDbHatch
  3
AutoCAD 2000
 90
    32768
280
     0
281
     1
  0
CLASS
  1
XRECORD
  2
AcDbXrecord
  3
AutoCAD 2000
 90
    32768
280
     0
281
     0
  0
CLASS
  1
LONG_TRANSACTION
  2
AcDbLongTransaction
  3
AutoCAD 2000
 90
    32768
280
     0
281
     0
  0
CLASS
  1
LWPOLYLINE
  2
AcDbPolyline
  3
AutoCAD 2000
 90
    32768
280
     0
281
     1
  0
CLASS
  1
HATCH
  2
AcDbHatch
  3
AutoCAD 2000
 90
    32768
280
     0
281
     1
  0
CLASS
  1
XRECORD
  2
AcDbXrecord
  3
AutoCAD 2000
 90
    32768
280
     0
281
     0
  0
CLASS
  1
LONG_TRANSACTION
  2
AcDbLongTransaction
  3
AutoCAD 2000
 90
    32768
280
     0
281
     0
  0
CLASS
  1
LWPOLYLINE
  2
AcDbPolyline
  3
AutoCAD 2000
 90
    32768
280
     0
281
     1
  0
CLASS
  1
HATCH
  2
AcDbHatch
  3
AutoCAD 2000
 90
    32768
280
     0
281
     1
  0
CLASS
  1
XRECORD
  2
AcDbXrecord
  3
AutoCAD 2000
 90
    32768
280
     0
281
     0
  0
CLASS
  1
LONG_TRANSACTION
  2
AcDbLongTransaction
  3
AutoCAD 2000
 90
    32768
280
     0
281
     0
  0
CLASS
  1
LWPOLYLINE
  2
AcDbPolyline
  3
AutoCAD 2000
 90
    32768
280
     0
281
     1
  0
CLASS
  1
HATCH
  2
AcDbHatch
  3
AutoCAD 2000
 90
    32768
280
     0
281
     1
  0
CLASS
  1
XRECORD
  2
AcDbXrecord
  3
AutoCAD 2000
 90
    32768
280
     0
281
     0
  0
CLASS
  1
LONG_TRANSACTION
  2
AcDbLongTransaction
  3
AutoCAD 2000
 90
    32768
280
     0
281
     0
  0
CLASS
  1
LWPOLYLINE
  2
AcDbPolyline
  3
AutoCAD 2000
 90
    32768
280
     0
281
     1
  0
CLASS
  1
HATCH
  2
AcDbHatch
  3
AutoCAD 2000
 90
    32768
280
     0
281
     1
  0
CLASS
  1
XRECORD
  2
AcDbXrecord
  3
AutoCAD 2000
 90
    32768
280
     0
281
     0
  0
CLASS
  1
LONG_TRANSACTION
  2
AcDbLongTransaction
  3
AutoCAD 2000
 90
    32768
280
     0
281
     0
  0
CLASS
  1
LWPOLYLINE
  2
AcDbPolyline
  3
AutoCAD 2000
 90
    32768
280
     0
281
     1
  0
CLASS
  1
HATCH
  2
AcDbHatch
  3
AutoCAD 2000
 90
    32768
280
     0
281
     1
  0
CLASS
  1
XRECORD
  2
AcDbXrecord
  3
AutoCAD 2000
 90
    32768
280
     0
281
     0
  0
CLASS
  1
LONG_TRANSACTION
  2
AcDbLongTransaction
  3
AutoCAD 2000
 90
    32768
280
     0
281
     0
  0
CLASS
  1
LWPOLYLINE
  2
AcDbPolyline
  3
AutoCAD 2000
 90
    32768
280
     0
281
     1
  0
CLASS
  1
HATCH
  2
AcDbHatch
  3
AutoCAD 2000
 90
    32768
280
     0
281
     1
  0
CLASS
  1
XRECORD
  2
AcDbXrecord
  3
AutoCAD 2000
 90
    32768
280
     0
281
     0
  0
CLASS
  1
LONG_TRANSACTION
  2
AcDbLongTransaction
  3
AutoCAD 2000
 90
    32768
280
     0
281
     0
  0
CLASS
  1
LWPOLYLINE
  2
AcDbPolyline
  3
AutoCAD 2000
 90
    32768
280
     0
281
     1
  0
CLASS
  1
HATCH
  2
AcDbHatch
  3
AutoCAD 2000
 90
    32768
280
     0
281
     1
  0
CLASS
  1
XRECORD
  2
AcDbXrecord
  3
AutoCAD 2000
 90
    32768
280
     0
281
     0
  0
CLASS
  1
LONG_TRANSACTION
  2
AcDbLongTransaction
  3
AutoCAD 2000
 90
    32768
280
     0
281
     0
  0
CLASS
  1
LWPOLYLINE
  2
AcDbPolyline
  3
AutoCAD 2000
 90
    32768
280
     0
281
     1
  0
CLASS
  1
HATCH
  2
AcDbHatch
  3
AutoCAD 2000
 90
    32768
280
     0
281
     1
  0
CLASS
  1
XRECORD
  2
AcDbXrecord
  3
AutoCAD 2000
 90
    32768
280
     0
281
     0
  0
CLASS
  1
LONG_TRANSACTION
  2
AcDbLongTransaction
  3
AutoCAD 2000
 90
    32768
280
     0
281
     0
  0
CLASS
  1
LWPOLYLINE
  2
AcDbPolyline
  3
AutoCAD 2000
 90
    32768
280
     0
281
     1
  0
CLASS
  1
HATCH
  2
AcDbHatch
  3
AutoCAD 2000
 90
    32768
280
     0
281
     1
  0
CLASS
  1
XRECORD
  2
AcDbXrecord
  3
AutoCAD 2000
 90
    32768
280
     0
281
     0
  0
CLASS
  1
LONG_TRANSACTION
  2
AcDbLongTransaction
  3
AutoCAD 2000
 90
    32768
280
     0
281
     0
  0
CLASS
  1
LWPOLYLINE
  2
AcDbPolyline
  3
AutoCAD 2000
 90
    32768
280
     0
281
     1
  0
CLASS
  1
HATCH
  2
AcDbHatch
  3
AutoCAD 2000
 90
    32768
280
     0
281
     1
  0
CLASS
  1
XRECORD
  2
AcDbXrecord
  3
AutoCAD 2000
 90
    32768
280
     0
281
     0
  0
CLASS
  1
LONG_TRANSACTION
  2
AcDbLongTransaction
  3
AutoCAD 2000
 90
    32768
280
     0
281
     0
  0
CLASS
  1
LWPOLYLINE
  2
AcDbPolyline
  3
AutoCAD 2000
 90
    32768
280
     0
281
     1
  0
CLASS
  1
HATCH
  2
AcDbHatch
  3
AutoCAD 2000
 90
    32768
280
     0
281
     1
  0
CLASS
  1
XRECORD
  2
AcDbXrecord
  3
AutoCAD 2000
 90
    32768
280
     0
281
     0
  0
CLASS
  1
LONG_TRANSACTION
  2
AcDbLongTransaction
  3
AutoCAD 2000
 90
    32768
280
     0
281
     0
  0
CLASS
  1
LWPOLYLINE
  2
AcDbPolyline
  3
AutoCAD 2000
 90
    32768
280
     0
281
     1
  0
CLASS
  1
HATCH
  2
AcDbHatch
  3
AutoCAD 2000
 90
    32768
280
     0
281
     1
  0
CLASS
  1
XRECORD
  2
AcDbXrecord
  3
AutoCAD 2000
 90
    32768
280
     0
281
     0
  0
CLASS
  1
LONG_TRANSACTION
  2
AcDbLongTransaction
  3
AutoCAD 2000
 90
    32768
280
     0
281
     0
  0
CLASS
  1
LWPOLYLINE
  2
AcDbPolyline
  3
AutoCAD 2000
 90
    32768
280
     0
281
     1
  0
CLASS
  1
HATCH
  2
AcDbHatch
  3
AutoCAD 2000
 90
    32768
280
     0
281
     1
  0
CLASS
  1
XRECORD
  2
AcDbXrecord
  3
AutoCAD 2000
 90
    32768
280
     0
281
     0
  0
CLASS
  1
LONG_TRANSACTION
  2
AcDbLongTransaction
  3
AutoCAD 2000
 90
    32768
280
     0
281
     0
  0
CLASS
  1
LWPOLYLINE
  2
AcDbPolyline
  3
AutoCAD 2000
 90
    32768
280
     0
281
     1
  0
CLASS
  1
HATCH
  2
AcDbHatch
  3
AutoCAD 2000
 90
    32768
280
     0
281
     1
  0
CLASS
  1
XRECORD
  2
AcDbXrecord
  3
AutoCAD 2000
 90
    32768
280
     0
281
     0
  0
CLASS
  1
LONG_TRANSACTION
  2
AcDbLongTransaction
  3
AutoCAD 2000
 90
    32768
280
     0
281
     0
  0
CLASS
  1
LWPOLYLINE
  2
AcDbPolyline
  3
AutoCAD 2000
 90
    32768
280
     0
281
     1
  0
CLASS
  1
HATCH
  2
AcDbHatch
  3
AutoCAD 2000
 90
    32768
280
     0
281
     1
  0
CLASS
  1
XRECORD
  2
AcDbXrecord
  3
AutoCAD 2000
 90
    32768
280
     0
281
     0
  0
CLASS
  1
LONG_TRANSACTION
  2
AcDbLongTransaction
  3
AutoCAD 2000
 90
    32768
280
     0
281
     0
  0
CLASS
  1
LWPOLYLINE
  2
AcDbPolyline
  3
AutoCAD 2000
 90
    32768
280
     0
281
     1
  0
CLASS
  1
HATCH
  2
AcDbHatch
  3
AutoCAD 2000
 90
    32768
280
     0
281
     1
  0
CLASS
  1
XRECORD
  2
AcDbXrecord
  3
AutoCAD 2000
 90
    32768
280
     0
281
     0
  0
CLASS
  1
LONG_TRANSACTION
  2
AcDbLongTransaction
  3
AutoCAD 2000
 90
    32768
280
     0
281
     0
  0
CLASS
  1
LWPOLYLINE
  2
AcDbPolyline
  3
AutoCAD 2000
 90
    32768
280
     0
281
     1
  0
CLASS
  1
HATCH
  2
AcDbHatch
  3
AutoCAD 2000
 90
    32768
280
     0
281
     1
  0
CLASS
  1
XRECORD
  2
AcDbXrecord
  3
AutoCAD 2000
 90
    32768
280
     0
281
     0
  0
CLASS
  1
LONG_TRANSACTION
  2
AcDbLongTransaction
  3
AutoCAD 2000
 90
    32768
280
     0
281
     0
  0
CLASS
  1
LWPOLYLINE
  2
AcDbPolyline
  3
AutoCAD 2000
 90
    32768
280
     0
281
     1
  0
CLASS
  1
HATCH
  2
AcDbHatch
  3
AutoCAD 2000
 90
    32768
280
     0
281
     1
  0
CLASS
  1
XRECORD
  2
AcDbXrecord
  3
AutoCAD 2000
 90
    32768
280
     0
281
     0
  0
CLASS
  1
LONG_TRANSACTION
  2
AcDbLongTransaction
  3
AutoCAD 2000
 90
    32768
280
     0
281
     0
  0
CLASS
  1
LWPOLYLINE
  2
AcDbPolyline
  3
AutoCAD 2000
 90
    32768
280
     0
281
     1
  0
CLASS
  1
HATCH
  2
AcDbHatch
  3
AutoCAD 2000
 90
    32768
280
     0
281
     1
  0
CLASS
  1
XRECORD
  2
AcDbXrecord
  3
AutoCAD 2000
 90
    32768
280
     0
281
     0
  0
CLASS
  1
LONG_TRANSACTION
  2
AcDbLongTransaction
  3
AutoCAD 2000
 90
    32768
280
     0
281
     0
  0
CLASS
  1
LWPOLYLINE
  2
AcDbPolyline
  3
AutoCAD 2000
 90
    32768
280
     0
281
     1
  0
CLASS
  1
HATCH
  2
AcDbHatch
  3
AutoCAD 2000
 90
    32768
280
     0
281
     1
  0
CLASS
  1
XRECORD
  2
AcDbXrecord
  3
AutoCAD 2000
 90
    32768
280
     0
281
     0
  0
CLASS
  1
LONG_TRANSACTION
  2
AcDbLongTransaction
  3
AutoCAD 2000
 90
    32768
280
     0
281
     0
  0
CLASS
  1
LWPOLYLINE
  2
AcDbPolyline
  3
AutoCAD 2000
 90
    32768
280
     0
281
     1
  0
CLASS
  1
HATCH
  2
AcDbHatch
  3
AutoCAD 2000
 90
    32768
280
     0
281
     1
  0
CLASS
  1
XRECORD
  2
AcDbXrecord
  3
AutoCAD 2000
 90
    32768
280
     0
281
     0
  0
CLASS
  1
LONG_TRANSACTION
  2
AcDbLongTransaction
  3
AutoCAD 2000
 90
    32768
280
     0
281
     0
  0
CLASS
  1
LWPOLYLINE
  2
AcDbPolyline
  3
AutoCAD 2000
 90
    32768
280
     0
281
     1
  0
CLASS
  1
HATCH
  2
AcDbHatch
  3
AutoCAD 2000
 90
    32768
280
     0
281
     1
  0
CLASS
  1
XRECORD
  2
AcDbXrecord
  3
AutoCAD 2000
 90
    32768
280
     0
281
     0
  0
CLASS
  1
LONG_TRANSACTION
  2
AcDbLongTransaction
  3
AutoCAD 2000
 90
    32768
280
     0
281
     0
  0
CLASS
  1
LWPOLYLINE
  2
AcDbPolyline
  3
AutoCAD 2000
 90
    32768
280
     0
281
     1
  0
CLASS
  1
HATCH
  2
AcDbHatch
  3
AutoCAD 2000
 90
    32768
280
     0
281
     1
  0
CLASS
  1
XRECORD
  2
AcDbXrecord
  3
AutoCAD 2000
 90
    32768
280
     0
281
     0
  0
CLASS
  1
LONG_TRANSACTION
  2
AcDbLongTransaction
  3
AutoCAD 2000
 90
    32768
280
     0
281
     0
  0
CLASS
  1
LWPOLYLINE
  2
AcDbPolyline
  3
AutoCAD 2000
 90
    32768
280
     0
281
     1
  0
CLASS
  1
HATCH
  2
AcDbHatch
  3
AutoCAD 2000
 90
    32768
280
     0
281
     1
  0
CLASS
  1
XRECORD
  2
AcDbXrecord
  3
AutoCAD 2000
 90
    32768
280
     0
281
     0
  0
CLASS
  1
LONG_TRANSACTION
  2
AcDbLongTransaction
  3
AutoCAD 2000
 90
    32768
280
     0
281
     0
  0
CLASS
  1
LWPOLYLINE
  2
AcDbPolyline
  3
AutoCAD 2000
 90
    32768
280
     0
281
     1
  0
CLASS
  1
HATCH
  2
AcDbHatch
  3
AutoCAD 2000
 90
    32768
280
     0
281
     1
  0
CLASS
  1
XRECORD
  2
AcDbXrecord
  3
AutoCAD 2000
 90
    32768
280
     0
281
     0
  0
CLASS
  1
LONG_TRANSACTION
  2
AcDbLongTransaction
  3
AutoCAD 2000
 90
    32768
280
     0
281
     0
  0
CLASS
  1
LWPOLYLINE
  2
AcDbPolyline
  3
AutoCAD 2000
 90
    32768
280
     0
281
     1
  0
CLASS
  1
HATCH
  2
AcDbHatch
  3
AutoCAD 2000
 90
    32768
280
     0
281
     1
  0
CLASS
  1
XRECORD
  2
AcDbXrecord
  3
AutoCAD 2000
 90
    32768
280
     0
281
     0
  0
CLASS
  1
LONG_TRANSACTION
  2
AcDbLongTransaction
  3
AutoCAD 2000
 90
    32768
280
     0
281
     0
  0
CLASS
  1
LWPOLYLINE
  2
AcDbPolyline
  3
AutoCAD 2000
 90
    32768
280
     0
281
     1
  0
CLASS
  1
HATCH
  2
AcDbHatch
  3
AutoCAD 2000
 90
    32768
280
     0
281
     1
  0
CLASS
  1
XRECORD
  2
AcDbXrecord
  3
AutoCAD 2000
 90
    32768
280
     0
281
     0
  0
CLASS
  1
LONG_TRANSACTION
  2
AcDbLongTransaction
  3
AutoCAD 2000
 90
    32768
280
     0
281
     0
  0
CLASS
  1
LWPOLYLINE
  2
AcDbPolyline
  3
AutoCAD 2000
 90
    32768
280
     0
281
     1
  0
CLASS
  1
HATCH
  2
AcDbHatch
  3
AutoCAD 2000
 90
    32768
280
     0
281
     1
  0
CLASS
  1
XRECORD
  2
AcDbXrecord
  3
AutoCAD 2000
 90
    32768
280
     0
281
     0
  0
CLASS
  1
LONG_TRANSACTION
  2
AcDbLongTransaction
  3
AutoCAD 2000
 90
    32768
280
     0
281
     0
  0
CLASS
  1
LWPOLYLINE
  2
AcDbPolyline
  3
AutoCAD 2000
 90
    32768
280
     0
281
     1
  0
CLASS
  1
HATCH
  2
AcDbHatch
  3
AutoCAD 2000
 90
    32768
280
     0
281
     1
  0
CLASS
  1
XRECORD
  2
AcDbXrecord
  3
AutoCAD 2000
 90
    32768
280
     0
281
     0
  0
CLASS
  1
LONG_TRANSACTION
  2
AcDbLongTransaction
  3
AutoCAD 2000
 90
    32768
280
     0
281
     0
  0
CLASS
  1
LWPOLYLINE
  2
AcDbPolyline
  3
AutoCAD 2000
 90
    32768
280
     0
281
     1
  0
CLASS
  1
HATCH
  2
AcDbHatch
  3
AutoCAD 2000
 90
    32768
280
     0
281
     1
  0
CLASS
  1
XRECORD
  2
AcDbXrecord
  3
AutoCAD 2000
 90
    32768
280
     0
281
     0
  0
CLASS
  1
LONG_TRANSACTION
  2
AcDbLongTransaction
  3
AutoCAD 2000
 90
    32768
280
     0
281
     0
  0
CLASS
  1
LWPOLYLINE
  2
AcDbPolyline
  3
AutoCAD 2000
 90
    32768
280
     0
281
     1
  0
CLASS
  1
HATCH
  2
AcDbHatch
  3
AutoCAD 2000
 90
    32768
280
     0
281
     1
  0
CLASS
  1
XRECORD
  2
AcDbXrecord
  3
AutoCAD 2000
 90
    32768
280
     0
281
     0
  0
CLASS
  1
LONG_TRANSACTION
  2
AcDbLongTransaction
  3
AutoCAD 2000
 90
    32768
280
     0
281
     0
  0
CLASS
  1
LWPOLYLINE
  2
AcDbPolyline
  3
AutoCAD 2000
 90
    32768
280
     0
281
     1
  0
CLASS
  1
HATCH
  2
AcDbHatch
  3
AutoCAD 2000
 90
    32768
280
     0
281
     1
  0
CLASS
  1
XRECORD
  2
AcDbXrecord
  3
AutoCAD 2000
 90
    32768
280
     0
281
     0
  0
ENDSEC
  0
SECTION
  2
TABLES
  0
TABLE
  2
VPORT
  5
1C
330
0
100
AcDbSymbolTable
 70
     2
  0
VPORT
  5
48C
330
1C
100
AcDbSymbolTableRecord
100
AcDbViewportTableRecord
  2
*ACTIVE
 70
     0
 10
0.0
 20
0.0
 11
1.0
 21
1.0
 12
468.1901563077584
 22
533.3569118451058
 13
0.0
 23
0.0
 14
1.0
 24
1.0
 15
0.0
 25
0.0
 16
0.0
 26
0.0
 36
1.0
 17
0.0
 27
0.0
 37
0.0
 40
717.6297856893896
 41
1.84990253411306
 42
50.0
 43
0.0
 44
0.0
 50
0.0
 51
0.0
 71
     0
 72
   100
 73
     1
 74
     0
 75
     0
 76
     0
 77
     0
 78
     0
  0
ENDTAB
  0
TABLE
  2
LTYPE
  5
17
330
0
100
AcDbSymbolTable
 70
     3
  0
LTYPE
  5
18
330
17
100
AcDbSymbolTableRecord
100
AcDbLinetypeTableRecord
  2
BYBLOCK
 70
     0
  3

 72
    65
 73
     0
 40
0.0
  0
LTYPE
  5
19
330
17
100
AcDbSymbolTableRecord
100
AcDbLinetypeTableRecord
  2
BYLAYER
 70
     0
  3

 72
    65
 73
     0
 40
0.0
  0
LTYPE
  5
A
330
17
100
AcDbSymbolTableRecord
100
AcDbLinetypeTableRecord
  2
CONTINUOUS
 70
     0
  3
Solid line
 72
    65
 73
     0
 40
0.0
  0
LTYPE
  5
2E
330
17
100
AcDbSymbolTableRecord
100
AcDbLinetypeTableRecord
  2
CENTER
 70
     0
  3
----- - ----- - ----- - ----- - ----- - -----
 72
    65
 73
     4
 40
35.0
 49
30.0
 74
     0
 49
-1.5
 74
     0
 49
2.0
 74
     0
 49
-1.5
 74
     0
  0
LTYPE
  5
4E
330
17
100
AcDbSymbolTableRecord
100
AcDbLinetypeTableRecord
  2
HIDDEN
 70
     0
  3

 72
    65
 73
     2
 40
3.0
 49
1.5
 74
     0
 49
-1.5
 74
     0
  0
ENDTAB
  0
TABLE
  2
LAYER
  5
13
330
0
100
AcDbSymbolTable
 70
     4
  0
LAYER
  5
5
330
13
100
AcDbSymbolTableRecord
100
AcDbLayerTableRecord
  2
0
 70
     0
 62
     2
  6
CONTINUOUS
  0
LAYER
  5
25
330
13
100
AcDbSymbolTableRecord
100
AcDbLayerTableRecord
  2
L-ZISSEN
 70
     0
 62
     7
  6
CONTINUOUS
  0
LAYER
  5
2D
330
13
100
AcDbSymbolTableRecord
100
AcDbLayerTableRecord
  2
L-TYUSIN
 70
     0
 62
     1
  6
CENTER
  0
LAYER
  5
4D
330
13
100
AcDbSymbolTableRecord
100
AcDbLayerTableRecord
  2
L-HASEN
 70
     0
 62
     5
  6
HIDDEN
  0
ENDTAB
  0
TABLE
  2
STYLE
  5
14
330
0
100
AcDbSymbolTable
 70
     1
  0
STYLE
  5
15
330
14
100
AcDbSymbolTableRecord
100
AcDbTextStyleTableRecord
  2
STANDARD
 70
     0
 40
0.0
 41
0.8
 50
0.0
 71
     0
 42
7.0
  3
txt.shx
  4

  0
ENDTAB
  0
TABLE
  2
VIEW
  5
1A
330
0
100
AcDbSymbolTable
 70
     0
  0
ENDTAB
  0
TABLE
  2
UCS
  5
1B
330
0
100
AcDbSymbolTable
 70
     0
  0
ENDTAB
  0
TABLE
  2
APPID
  5
1E
330
0
100
AcDbSymbolTable
 70
     1
  0
APPID
  5
9
330
1E
100
AcDbSymbolTableRecord
100
AcDbRegAppTableRecord
  2
ACAD
 70
     0
  0
ENDTAB
  0
TABLE
  2
DIMSTYLE
  5
1F
330
0
100
AcDbSymbolTable
 70
     1
  0
DIMSTYLE
105
20
330
1F
100
AcDbSymbolTableRecord
100
AcDbDimStyleTableRecord
  2
STANDARD
 70
     0
  3

  4

  5

  6

  7

 40
1.0
 41
0.18
 42
0.0625
 43
0.38
 44
0.18
 45
0.0
 46
0.0
 47
0.0
 48
0.0
140
0.18
141
0.09
142
0.0
143
25.4
144
1.0
145
0.0
146
1.0
147
0.09
 71
     0
 72
     0
 73
     1
 74
     1
 75
     0
 76
     0
 77
     0
 78
     0
170
     0
171
     2
172
     0
173
     0
174
     0
175
     0
176
     0
177
     0
178
     0
270
     2
271
     4
272
     4
273
     2
274
     2
340
15
275
     0
280
     0
281
     0
282
     0
283
     1
284
     0
285
     0
286
     0
287
     3
288
     0
  0
ENDTAB
  0
TABLE
  2
BLOCK_RECORD
  5
1
330
0
100
AcDbSymbolTable
 70
     1
  0
BLOCK_RECORD
  5
2
102
{ACAD_XDICTIONARY
360
3
102
}
330
1
100
AcDbSymbolTableRecord
100
AcDbBlockTableRecord
  2
*MODEL_SPACE
  0
BLOCK_RECORD
  5
E
102
{ACAD_XDICTIONARY
360
F
102
}
330
1
100
AcDbSymbolTableRecord
100
AcDbBlockTableRecord
  2
*PAPER_SPACE
  0
BLOCK_RECORD
  5
1D8
330
1
100
AcDbSymbolTableRecord
100
AcDbBlockTableRecord
  2
_OPEN
  0
ENDTAB
  0
ENDSEC
  0
SECTION
  2
BLOCKS
  0
BLOCK
  5
4
330
2
100
AcDbEntity
  8
0
100
AcDbBlockBegin
  2
*MODEL_SPACE
 70
     0
 10
0.0
 20
0.0
 30
0.0
  3
*MODEL_SPACE
  1

  0
ENDBLK
  5
B
330
2
100
AcDbEntity
  8
0
100
AcDbBlockEnd
  0
BLOCK
  5
10
330
E
100
AcDbEntity
 67
     1
  8
0
100
AcDbBlockBegin
  2
*PAPER_SPACE
 70
     0
 10
0.0
 20
0.0
 30
0.0
  3
*PAPER_SPACE
  1

  0
ENDBLK
  5
11
330
E
100
AcDbEntity
 67
     1
  8
0
100
AcDbBlockEnd
  0
BLOCK
  5
1DC
330
1D8
100
AcDbEntity
  8
0
100
AcDbBlockBegin
  2
_OPEN
 70
     0
 10
0.0
 20
0.0
 30
0.0
  3
_OPEN
  1

  0
LINE
  5
1D9
330
1D8
100
AcDbEntity
  8
0
  6
BYBLOCK
 62
     0
100
AcDbLine
 10
-1.0
 20
0.166667
 30
0.0
 11
0.0
 21
0.0
 31
0.0
  0
LINE
  5
1DA
330
1D8
100
AcDbEntity
  8
0
  6
BYBLOCK
 62
     0
100
AcDbLine
 10
0.0
 20
0.0
 30
0.0
 11
-1.0
 21
-0.166667
 31
0.0
  0
LINE
  5
1DB
330
1D8
100
AcDbEntity
  8
0
  6
BYBLOCK
 62
     0
100
AcDbLine
 10
0.0
 20
0.0
 30
0.0
 11
-1.0
 21
0.0
 31
0.0
  0
ENDBLK
  5
1DD
330
1D8
100
AcDbEntity
  8
0
100
AcDbBlockEnd
  0
ENDSEC
  0
SECTION
  2
ENTITIES
  0
TEXT
  5
27
330
2
100
AcDbEntity
  8
L-ZISSEN
100
AcDbText
 10
208.4998790848461
 20
851.0713884949478
 30
-0.4755249393164434
 40
4.5
  1
MCA-0BB  -  DA4
100
AcDbText
  0
LINE
  5
28
330
2
100
AcDbEntity
  8
L-ZISSEN
100
AcDbLine
 10
254.8269805649333
 20
596.3994182034098
 30
-1.083937261185683
 11
192.8269805649333
 21
596.3994182034098
 31
-1.216824643738492
  0
LINE
  5
29
330
2
100
AcDbEntity
  8
L-ZISSEN
100
AcDbLine
 10
249.5269805649335
 20
581.3994182033971
 30
-0.6084123218692534
 11
209.5269805649335
 21
581.3994182033971
 31
-0.6084123218692534
  0
LINE
  5
2A
330
2
100
AcDbEntity
  8
L-ZISSEN
100
AcDbLine
 10
249.5269805649334
 20
546.3994182034092
 30
-0.6084123218692526
 11
192.8269805649333
 21
546.3994182034098
 31
-0.6084123218692526
  0
LINE
  5
2B
330
2
100
AcDbEntity
  8
L-ZISSEN
100
AcDbLine
 10
249.5269805649332
 20
431.3994182033949
 30
-1.216824643738494
 11
209.5269805649333
 21
431.3994182033949
 31
-1.216824643738494
  0
LINE
  5
2C
330
2
100
AcDbEntity
  8
L-TYUSIN
100
AcDbLine
 10
208.8857012849193
 20
341.89941820341
 30
-0.1104775461948838
 11
226.8750976367091
 21
341.89941820341
 31
-0.1104775461948838
  0
LINE
  5
2F
330
2
100
AcDbEntity
  8
L-ZISSEN
100
AcDbLine
 10
260.8269805649352
 20
381.8994668574589
 30
-0.4755249393164372
 11
192.8269805649351
 21
381.8994668574589
 31
-0.4755249393164372
  0
LINE
  5
30
330
2
100
AcDbEntity
  8
L-ZISSEN
100
AcDbLine
 10
192.8269805649351
 20
381.8994668574598
 30
-0.4755249393164372
 11
250.8269805649351
 21
381.8994668574598
 31
-0.4755249393164372
  0
LINE
  5
31
330
2
100
AcDbEntity
  8
L-ZISSEN
100
AcDbLine
 10
305.9794830646688
 20
187.3994182034105
 30
-0.4755249393164372
 11
201.6755343724435
 21
187.3994182034105
 31
-0.4755249393164372
  0
LINE
  5
32
330
2
100
AcDbEntity
  8
L-ZISSEN
100
AcDbLine
 10
192.8269805649351
 20
321.89941820341
 30
-0.4755249393164372
 11
310.3269805649351
 21
321.8994182034109
 31
-0.4755249393164372
  0
LINE
  5
33
330
2
100
AcDbEntity
  8
L-ZISSEN
100
AcDbLine
 10
196.3099805649353
 20
321.3994182034105
 30
-0.4755249393164372
 11
311.3449805649352
 21
321.3994182034105
 31
-0.4755249393164372
  0
LINE
  5
34
330
2
100
AcDbEntity
  8
L-ZISSEN
100
AcDbLine
 10
196.3099805649353
 20
317.8994182034104
 30
-0.4755249393164372
 11
311.3449805649352
 21
317.8994182034104
 31
-0.4755249393164372
  0
LINE
  5
35
330
2
100
AcDbEntity
  8
L-ZISSEN
100
AcDbLine
 10
310.3269805649351
 20
371.8994182034109
 30
-0.4755249393164372
 11
192.8269805649351
 21
371.8994182034105
 31
-0.4755249393164372
  0
LINE
  5
36
330
2
100
AcDbEntity
  8
L-ZISSEN
100
AcDbLine
 10
192.8269805649351
 20
371.8994182034105
 30
-0.4755249393164372
 11
192.8269805649351
 21
321.8994182034105
 31
0.1328873825528092
  0
LINE
  5
37
330
2
100
AcDbEntity
  8
L-ZISSEN
100
AcDbLine
 10
192.8269805649333
 20
371.5460083018092
 30
-1.216824643738492
 11
192.8269805649333
 21
596.3994182034094
 31
-1.216824643738492
  0
LINE
  5
38
330
2
100
AcDbEntity
  8
L-ZISSEN
100
AcDbLine
 10
209.5269805649333
 20
431.3994182033949
 30
-1.216824643738492
 11
209.5269805649335
 21
581.3994182033971
 31
-1.216824643738492
  0
LINE
  5
39
330
2
100
AcDbEntity
  8
L-ZISSEN
100
AcDbLine
 10
199.4139805649347
 20
316.9164182034103
 30
-0.4755249393164372
 11
201.6755343724435
 21
187.3994182034105
 31
-0.4755249393164372
  0
LINE
  5
3A
330
2
100
AcDbEntity
  8
L-ZISSEN
100
AcDbLine
 10
184.1269805649344
 20
302.4528767590602
 30
-1.0409571563886
 11
184.1269805649344
 21
279.7528767590604
 31
-1.248009052500059
  0
LINE
  5
3B
330
2
100
AcDbEntity
  8
L-ZISSEN
100
AcDbLine
 10
196.3099805649353
 20
321.3994182034105
 30
-0.4755249393164372
 11
196.3099805649353
 21
317.8994182034104
 31
-0.4755249393164372
  0
ARC
  5
3C
330
2
100
AcDbEntity
  8
L-ZISSEN
100
AcDbCircle
 10
198.4149805649349
 20
316.8994182034105
 30
-0.4755249393164372
 40
1.0
100
AcDbArc
 50
1.000000000001762
 51
90.0
  0
LINE
  5
3D
330
2
100
AcDbEntity
  8
L-ZISSEN
100
AcDbLine
 10
192.826980564937
 20
481.89941820341
 30
-0.4755249393164372
 11
209.5269805649333
 21
481.8994182034105
 31
-0.4755249393164372
1001
ACAD
1000
ASC_BOUNDS
1002
{
1070
    19
1002
}
  0
LINE
  5
3E
330
2
100
AcDbEntity
  8
L-ZISSEN
100
AcDbLine
 10
209.5269805649333
 20
496.3994182034098
 30
-0.6084123218692526
 11
192.8269805649315
 21
496.3994182034098
 31
-0.6084123218692526
  0
LINE
  5
3F
330
2
100
AcDbEntity
  8
L-ZISSEN
100
AcDbLine
 10
192.8269805649351
 20
366.8391562660683
 30
1.861061027038423
 11
192.8269805649351
 21
302.4528767590602
 31
2.644529143266047
  0
LINE
  5
40
330
2
100
AcDbEntity
  8
L-ZISSEN
100
AcDbLine
 10
181.8269805649351
 20
279.7528767590604
 30
2.40863211672075
 11
181.8269805649351
 21
449.7528767590604
 31
0.1328873825528092
  0
LINE
  5
41
330
2
100
AcDbEntity
  8
L-ZISSEN
100
AcDbLine
 10
184.1269805649344
 20
279.7528767590604
 30
2.40863211672075
 11
181.8269805649351
 21
279.7528767590604
 31
2.40863211672075
  0
LINE
  5
42
330
2
100
AcDbEntity
  8
L-TYUSIN
100
AcDbLine
 10
189.1269805649344
 20
289.7528767590604
 30
2.40863211672075
 11
176.8269805649333
 21
289.7528767590604
 31
2.40863211672075
  0
LINE
  5
43
330
2
100
AcDbEntity
  8
L-ZISSEN
100
AcDbLine
 10
190.526980564934
 20
304.7528767590604
 30
2.40863211672075
 11
181.8269805649333
 21
304.7528767590604
 31
2.40863211672075
  0
LINE
  5
44
330
2
100
AcDbEntity
  8
L-ZISSEN
100
AcDbLine
 10
192.8269805649351
 20
302.4528767590602
 30
2.40863211672075
 11
184.1269805649344
 21
302.4528767590602
 31
2.40863211672075
  0
LINE
  5
45
330
2
100
AcDbEntity
  8
L-ZISSEN
100
AcDbLine
 10
190.5269805649359
 20
424.7528767590604
 30
2.91221654126344
 11
181.8269805649351
 21
424.7528767590604
 31
2.91221654126344
  0
LINE
  5
46
330
2
100
AcDbEntity
  8
L-TYUSIN
100
AcDbLine
 10
189.1269805649344
 20
439.7528767590604
 30
2.91221654126344
 11
176.8269805649351
 21
439.7528767590604
 31
2.91221654126344
  0
LINE
  5
47
330
2
100
AcDbEntity
  8
L-ZISSEN
100
AcDbLine
 10
184.1269805649344
 20
449.7528767590604
 30
0.8061842856526748
 11
184.1269805649344
 21
427.0528767590605
 31
0.5991323895412144
  0
LINE
  5
48
330
2
100
AcDbEntity
  8
L-ZISSEN
100
AcDbLine
 10
192.8269805649351
 20
427.0528767590605
 30
2.91221654126344
 11
184.1269805649344
 21
427.0528767590605
 31
2.91221654126344
  0
LINE
  5
49
330
2
100
AcDbEntity
  8
L-ZISSEN
100
AcDbLine
 10
184.1269805649344
 20
449.7528767590604
 30
2.91221654126344
 11
181.8269805649351
 21
449.7528767590604
 31
2.91221654126344
  0
LINE
  5
4A
330
2
100
AcDbEntity
  8
L-ZISSEN
100
AcDbLine
 10
745.124819539656
 20
758.2212386561472
 30
0.0
 11
645.5478831721352
 21
758.2212386561471
 31
0.0
  0
LINE
  5
4B
330
2
100
AcDbEntity
  8
L-ZISSEN
100
AcDbLine
 10
640.8363513558956
 20
752.7097068399075
 30
0.0
 11
749.8363513558956
 21
752.7097068399075
 31
0.0
  0
CIRCLE
  5
4C
330
2
100
AcDbEntity
  8
L-HASEN
100
AcDbCircle
 10
739.1363513558949
 20
768.0097068399086
 30
0.0
 40
10.5
  0
LINE
  5
4F
330
2
100
AcDbEntity
  8
L-TYUSIN
 48
0.5
100
AcDbLine
 10
753.1548818622736
 20
768.0097068399086
 30
0.0
 11
725.1178208495161
 21
768.0097068399086
 31
0.0
  0
LINE
  5
50
330
2
100
AcDbEntity
  8
L-ZISSEN
100
AcDbLine
 10
745.124819539656
 20
867.798175023668
 30
0.0
 11
645.5478831721352
 21
867.7981750236684
 31
0.0
  0
LINE
  5
51
330
2
100
AcDbEntity
  8
L-ZISSEN
100
AcDbLine
 10
640.8363513558956
 20
873.3097068399079
 30
0.0
 11
749.8363513558956
 21
873.3097068399079
 31
0.0
  0
LINE
  5
52
330
2
100
AcDbEntity
  8
L-HASEN
100
AcDbLine
 10
748.1363513558967
 20
449.2528767590588
 30
0.0
 11
639.6045431450398
 21
449.2528767590588
 31
0.0
  0
LINE
  5
53
330
2
100
AcDbEntity
  8
L-ZISSEN
100
AcDbLine
 10
645.2927060057095
 20
467.3994182034098
 30
0.0
 11
745.3799967060818
 21
467.3994182034098
 31
0.0
  0
LINE
  5
54
330
2
100
AcDbEntity
  8
L-TYUSIN
 48
0.5
100
AcDbLine
 10
759.5692841171089
 20
813.0097068399086
 30
0.0
 11
543.9972651224447
 21
813.0097068399086
 31
0.0
  0
LINE
  5
55
330
2
100
AcDbEntity
  8
L-ZISSEN
  6
CONTINUOUS
 62
     7
100
AcDbLine
 10
752.1363552516864
 20
874.0097068399077
 30
0.0
 11
531.1363513558985
 21
874.0097068399085
 31
0.0
  0
LINE
  5
56
330
2
100
AcDbEntity
  8
L-ZISSEN
  6
CONTINUOUS
 62
     7
100
AcDbLine
 10
751.1363513558968
 20
882.7097068399083
 30
0.0
 11
531.1363513558967
 21
882.7097068399075
 31
0.0
  0
LINE
  5
57
330
2
100
AcDbEntity
  8
L-ZISSEN
  6
CONTINUOUS
 62
     7
100
AcDbLine
 10
751.1363513558968
 20
885.0097068399078
 30
0.0
 11
531.1363513558967
 21
885.0097068399078
 31
0.0
  0
LINE
  5
58
330
2
100
AcDbEntity
  8
L-ZISSEN
  6
CONTINUOUS
 62
     7
100
AcDbLine
 10
615.6363513558949
 20
752.0097068399087
 30
0.0
 11
752.1363513558949
 21
752.0097068399086
 31
0.0
  0
LINE
  5
59
330
2
100
AcDbEntity
  8
L-TYUSIN
100
AcDbLine
 10
744.6363513558967
 20
288.8994182034107
 30
0.0
 11
712.6363513558986
 21
288.8994182034107
 31
0.0
  0
LINE
  5
5A
330
2
100
AcDbEntity
  8
L-ZISSEN
100
AcDbLine
 10
738.1363513558967
 20
284.8994182034107
 30
0.0
 11
719.1363513558967
 21
284.8994182034107
 31
0.0
  0
LINE
  5
5B
330
2
100
AcDbEntity
  8
L-ZISSEN
100
AcDbLine
 10
719.1363513558967
 20
292.8994182034107
 30
0.0
 11
738.1363513558967
 21
292.8994182034107
 31
0.0
  0
LINE
  5
5C
330
2
100
AcDbEntity
  8
L-ZISSEN
100
AcDbLine
 10
719.2820135378529
 20
302.0994182034105
 30
0.0
 11
751.1363513558968
 21
302.0994182034105
 31
0.0
  0
LINE
  5
5D
330
2
100
AcDbEntity
  8
L-ZISSEN
100
AcDbLine
 10
718.8857835639823
 20
279.3994182034098
 30
0.0
 11
748.1363513558967
 21
279.3994182034107
 31
0.0
  0
ARC
  5
5E
330
2
100
AcDbEntity
  8
L-ZISSEN
100
AcDbCircle
 10
738.1363513558949
 20
288.8994182034107
 30
0.0
 40
4.0
100
AcDbArc
 50
269.9999999999999
 51
90.0
  0
LINE
  5
5F
330
2
100
AcDbEntity
  8
L-HASEN
100
AcDbLine
 10
751.1363513558968
 20
426.5528767590585
 30
0.0
 11
638.4148865553156
 21
426.5528767590589
 31
0.0
  0
LINE
  5
60
330
2
100
AcDbEntity
  8
L-ZISSEN
  6
CONTINUOUS
 62
     7
100
AcDbLine
 10
664.1363513558949
 20
363.3994182034098
 30
0.0
 11
742.1363513558949
 21
363.3994182034098
 31
0.0
  0
LINE
  5
61
330
2
100
AcDbEntity
  8
L-ZISSEN
  6
CONTINUOUS
 62
     7
100
AcDbLine
 10
755.1363513558949
 20
366.3994182034089
 30
0.0
 11
664.1363513558949
 21
366.3994182034098
 31
0.0
  0
LINE
  5
62
330
2
100
AcDbEntity
  8
L-ZISSEN
100
AcDbLine
 10
755.1363513558949
 20
370.8994182034107
 30
0.0
 11
664.1363513558949
 21
370.8994182034098
 31
0.0
  0
LINE
  5
63
330
2
100
AcDbEntity
  8
L-ZISSEN
100
AcDbLine
 10
749.6600807419431
 20
307.6995589793052
 30
0.0
 11
727.6600807419431
 21
307.699558979305
 31
0.0
  0
LINE
  5
64
330
2
100
AcDbEntity
  8
L-ZISSEN
100
AcDbLine
 10
724.1600807419431
 20
317.5995589793046
 30
0.0
 11
753.160080741943
 21
317.5995589793056
 31
0.0
  0
LINE
  5
65
330
2
100
AcDbEntity
  8
L-HASEN
100
AcDbLine
 10
738.1363513558967
 20
434.8994182034107
 30
0.0
 11
719.1363513558967
 21
434.8994182034107
 31
0.0
  0
LINE
  5
66
330
2
100
AcDbEntity
  8
L-TYUSIN
100
AcDbLine
 10
744.6363513558967
 20
438.8994182034107
 30
0.0
 11
712.6363513558986
 21
438.8994182034107
 31
0.0
  0
LINE
  5
67
330
2
100
AcDbEntity
  8
L-HASEN
100
AcDbLine
 10
719.1363513558967
 20
442.8994182034107
 30
0.0
 11
738.1363513558967
 21
442.8994182034107
 31
0.0
  0
ARC
  5
68
330
2
100
AcDbEntity
  8
L-HASEN
100
AcDbCircle
 10
738.1363513558949
 20
438.8994182034107
 30
0.0
 40
4.0
100
AcDbArc
 50
269.9999999999999
 51
90.0
  0
LINE
  5
69
330
2
100
AcDbEntity
  8
L-ZISSEN
  6
CONTINUOUS
 62
     7
100
AcDbLine
 10
601.508593424141
 20
321.3994182034098
 30
0.0
 11
755.1363513558948
 21
321.3994182034102
 31
0.0
  0
LINE
  5
6A
330
2
100
AcDbEntity
  8
L-ZISSEN
  6
CONTINUOUS
 62
     7
100
AcDbLine
 10
613.6363513558949
 20
327.3994182034098
 30
0.0
 11
742.136351355895
 21
327.39941820341
 31
0.0
  0
CIRCLE
  5
6B
330
2
100
AcDbEntity
  8
L-ZISSEN
  6
CONTINUOUS
 62
     7
100
AcDbCircle
 10
587.1363513558958
 20
521.3994182034098
 30
0.0
 40
19.00000000000001
  0
CIRCLE
  5
6C
330
2
100
AcDbEntity
  8
L-ZISSEN
  6
CONTINUOUS
 62
     7
100
AcDbCircle
 10
587.1363513558958
 20
521.3994182034098
 30
0.0
 40
12.5
  0
CIRCLE
  5
6D
330
2
100
AcDbEntity
  8
L-ZISSEN
  6
CONTINUOUS
 62
     7
100
AcDbCircle
 10
587.1363513558958
 20
521.3994182034098
 30
0.0
 40
13.50000000000002
  0
CIRCLE
  5
6E
330
2
100
AcDbEntity
  8
L-ZISSEN
 62
     7
100
AcDbCircle
 10
587.1363513558958
 20
521.3994182034098
 30
0.0
 40
14.0
  0
LINE
  5
6F
330
2
100
AcDbEntity
  8
L-ZISSEN
100
AcDbLine
 10
563.6363513558961
 20
546.3994182033982
 30
-0.6084123218692525
 11
563.6363513558961
 21
496.3994182033982
 31
-0.6084123218692525
  0
LINE
  5
70
330
2
100
AcDbEntity
  8
L-ZISSEN
100
AcDbLine
 10
613.6363513558968
 20
546.3994182034098
 30
-0.6084123218692526
 11
613.6363513558968
 21
496.3994182034098
 31
-0.6084123218692526
  0
LINE
  5
71
330
2
100
AcDbEntity
  8
L-ZISSEN
100
AcDbLine
 10
563.6363513558985
 20
596.3994182034098
 30
-0.6084123218692526
 11
563.6363513558985
 21
481.3994182034098
 31
-0.6084123218692526
  0
LINE
  5
72
330
2
100
AcDbEntity
  8
L-ZISSEN
100
AcDbLine
 10
523.6363513558971
 20
579.3994182033969
 30
0.0
 11
523.6363513559012
 21
431.399418203395
 31
0.0
  0
LINE
  5
73
330
2
100
AcDbEntity
  8
L-TYUSIN
100
AcDbLine
 10
543.6363513558996
 20
399.6058332198643
 30
-0.6084123218692534
 11
543.6363513558975
 21
584.8994182033963
 31
-0.6084123218692534
  0
LINE
  5
74
330
2
100
AcDbEntity
  8
L-TYUSIN
100
AcDbLine
 10
587.1363513558949
 20
438.3994182034098
 30
0.0
 11
587.1363513558967
 21
601.3994182034093
 31
0.0
  0
LINE
  5
75
330
2
100
AcDbEntity
  8
L-ZISSEN
100
AcDbLine
 10
269.5269805649318
 20
502.1494182034082
 30
-1.216824643738492
 11
269.5269805649318
 21
540.6494182034105
 31
-1.216824643738492
  0
LINE
  5
76
330
2
100
AcDbEntity
  8
L-ZISSEN
100
AcDbLine
 10
282.5269805649318
 20
506.3181682034105
 30
-1.216824643738492
 11
282.5269805649318
 21
536.4806682034104
 31
-1.216824643738492
  0
LINE
  5
77
330
2
100
AcDbEntity
  8
L-ZISSEN
100
AcDbLine
 10
284.2466019611258
 20
534.1494182034091
 30
-1.216824643738492
 11
284.246601961126
 21
508.6494182034091
 31
-1.216824643738492
  0
LINE
  5
78
330
2
100
AcDbEntity
  8
L-ZISSEN
100
AcDbLine
 10
285.9466019611259
 20
534.1494182034091
 30
-1.216824643738492
 11
285.9466019611259
 21
508.6494182034091
 31
-1.216824643738492
  0
LINE
  5
79
330
2
100
AcDbEntity
  8
L-ZISSEN
100
AcDbLine
 10
286.4466019611258
 20
534.6494182034091
 30
-1.216824643738492
 11
286.4466019611258
 21
508.1494182034091
 31
-1.216824643738492
  0
LINE
  5
7A
330
2
100
AcDbEntity
  8
L-ZISSEN
100
AcDbLine
 10
302.8269805649315
 20
509.8994182034091
 30
-1.216824643738492
 11
302.8269805649315
 21
532.8994182034091
 31
-1.216824643738492
  0
LINE
  5
7B
330
2
100
AcDbEntity
  8
L-ZISSEN
100
AcDbLine
 10
301.2269805649316
 20
508.8994182034091
 30
-1.216824643738492
 11
301.2269805649316
 21
533.8994182034091
 31
-1.216824643738492
  0
LINE
  5
7C
330
2
100
AcDbEntity
  8
L-ZISSEN
100
AcDbLine
 10
299.4466019611259
 20
508.8994182034091
 30
-1.216824643738492
 11
299.4466019611259
 21
533.8994182034089
 31
-1.216824643738492
  0
LINE
  5
7D
330
2
100
AcDbEntity
  8
L-ZISSEN
100
AcDbLine
 10
295.6475638554491
 20
534.6494182034091
 30
-1.216824643738492
 11
295.6475638554493
 21
508.1494182034091
 31
-1.216824643738492
  0
LINE
  5
7E
330
2
100
AcDbEntity
  8
L-ZISSEN
100
AcDbLine
 10
254.8269805649315
 20
481.8994182034105
 30
-1.216824643738492
 11
254.8269805649315
 21
556.3994182033979
 31
-1.216824643738492
  0
LINE
  5
7F
330
2
100
AcDbEntity
  8
L-ZISSEN
100
AcDbLine
 10
257.4269805649319
 20
539.8494182034105
 30
-1.216824643738492
 11
257.4269805649318
 21
502.9494182034079
 31
-1.216824643738492
  0
LINE
  5
80
330
2
100
AcDbEntity
  8
L-ZISSEN
100
AcDbLine
 10
249.5269805649335
 20
581.3994182033971
 30
-1.216824643738492
 11
249.5269805649332
 21
431.3994182033949
 31
-1.216824643738492
  0
LINE
  5
81
330
2
100
AcDbEntity
  8
L-ZISSEN
100
AcDbLine
 10
341.8269805649352
 20
351.3994182034104
 30
-0.4755249393164372
 11
341.8269805649352
 21
315.3994182034105
 31
-0.4755249393164372
  0
ARC
  5
82
330
2
100
AcDbEntity
  8
L-ZISSEN
100
AcDbCircle
 10
346.8269805649347
 20
346.0460083018097
 30
-1.65947215136655
 40
17.0
100
AcDbArc
 50
270.0
 51
0.0
  0
LINE
  5
83
330
2
100
AcDbEntity
  8
L-TYUSIN
 48
0.5
100
AcDbLine
 10
346.8269805649356
 20
324.2170287802225
 30
-1.65947215136655
 11
346.8269805649351
 21
411.0180088264026
 31
-1.65947215136655
  0
LINE
  5
84
330
2
100
AcDbEntity
  8
L-ZISSEN
100
AcDbLine
 10
313.8269805649351
 20
339.3994182034105
 30
-0.4755249393164372
 11
313.8269805649351
 21
327.3994182034105
 31
-0.4755249393164372
  0
LINE
  5
85
330
2
100
AcDbEntity
  8
L-ZISSEN
100
AcDbLine
 10
295.9811109256829
 20
327.6546732743793
 30
-0.4755249393164372
 11
298.0923797463485
 21
335.4505884694638
 31
-0.4755249393164372
  0
LINE
  5
86
330
2
100
AcDbEntity
  8
L-ZISSEN
100
AcDbLine
 10
319.8269805649351
 20
315.3994182034105
 30
-0.4755249393164372
 11
319.8269805649351
 21
351.3994182034104
 31
-0.4755249393164372
  0
LINE
  5
87
330
2
100
AcDbEntity
  8
L-ZISSEN
100
AcDbLine
 10
281.6368756986075
 20
333.2132623087031
 30
-0.4755249393164372
 11
275.289957567702
 21
339.5942205600567
 31
-0.4755249393164372
  0
LINE
  5
88
330
2
100
AcDbEntity
  8
L-ZISSEN
100
AcDbLine
 10
281.6368756986075
 20
333.2132623087031
 30
-0.4755249393164372
 11
290.4993165237661
 21
342.0284259593447
 31
-0.4755249393164372
  0
LINE
  5
89
330
2
100
AcDbEntity
  8
L-TYUSIN
100
AcDbLine
 10
290.2993750027756
 20
344.8762484987419
 30
-0.4755249393164372
 11
290.2993750027756
 21
321.857494216103
 31
-0.4755249393164372
  0
ARC
  5
8A
330
2
100
AcDbEntity
  8
L-ZISSEN
100
AcDbCircle
 10
290.2993750027756
 20
333.3668713574224
 30
-0.4755249393164372
 40
4.5
100
AcDbArc
 50
224.8467500000038
 51
44.77119473121158
  0
LINE
  5
8B
330
2
100
AcDbEntity
  8
L-ZISSEN
100
AcDbLine
 10
310.3269805649351
 20
321.8994182034109
 30
-1.083937261185683
 11
310.3269805649351
 21
371.8994182034105
 31
-1.083937261185683
  0
LINE
  5
8C
330
2
100
AcDbEntity
  8
L-ZISSEN
100
AcDbLine
 10
224.1143995649372
 20
335.90856320341
 30
-0.1104775461948838
 11
224.0903295649359
 21
326.9085955034104
 31
-0.1104775461948838
  0
LINE
  5
8D
330
2
100
AcDbEntity
  8
L-ZISSEN
100
AcDbLine
 10
211.6144455649364
 20
335.9419932034095
 30
-0.1104775461948838
 11
211.5903765649354
 21
326.9420255034099
 31
-0.1104775461948838
  0
LINE
  5
8E
330
2
100
AcDbEntity
  8
L-TYUSIN
100
AcDbLine
 10
217.8269805649351
 20
319.89941820341
 30
-0.1104775461948838
 11
217.8269805649351
 21
352.2447836694106
 31
-0.1104775461948838
  0
LINE
  5
8F
330
2
100
AcDbEntity
  8
L-TYUSIN
100
AcDbLine
 10
253.8269805649351
 20
355.3770083018778
 30
-1.083937261185683
 11
253.8269805649351
 21
179.3994182034109
 31
-1.083937261185683
  0
LINE
  5
90
330
2
100
AcDbEntity
  8
L-TYUSIN
100
AcDbLine
 10
290.2993750027756
 20
333.3668713574224
 30
0.0
 11
232.4559127530682
 21
391.21033360713
 31
0.0
  0
LINE
  5
91
330
2
100
AcDbEntity
  8
L-ZISSEN
100
AcDbLine
 10
341.8269805649352
 20
315.3994182034105
 30
-0.4755249393164372
 11
319.8269805649351
 21
315.3994182034105
 31
-0.4755249393164372
  0
LINE
  5
92
330
2
100
AcDbEntity
  8
L-ZISSEN
100
AcDbLine
 10
308.2399805649356
 20
316.9164182034103
 30
-0.4755249393164372
 11
305.9794830646688
 21
187.3994182034105
 31
-0.4755249393164372
  0
LINE
  5
93
330
2
100
AcDbEntity
  8
L-ZISSEN
100
AcDbLine
 10
230.3098862468852
 20
179.3994182034104
 30
-0.4755249393164372
 11
214.310236828191
 21
179.3994182034104
 31
-0.4755249393164372
  0
LINE
  5
94
330
2
100
AcDbEntity
  8
L-ZISSEN
100
AcDbLine
 10
214.310236828191
 20
179.3994182034105
 30
-0.4755249393164372
 11
214.1697278144055
 21
187.3994182034105
 31
-0.4755249393164372
  0
LINE
  5
95
330
2
100
AcDbEntity
  8
L-ZISSEN
100
AcDbLine
 10
230.4490766228644
 20
187.3994182034105
 30
-0.4755249393164372
 11
230.3098862468852
 21
179.3994182034105
 31
-0.4755249393164372
  0
LINE
  5
96
330
2
100
AcDbEntity
  8
L-ZISSEN
100
AcDbLine
 10
261.826980564937
 20
182.3994182034105
 30
-1.083937261185681
 11
245.8269805649369
 21
182.3994182034105
 31
-1.083937261185681
  0
LINE
  5
97
330
2
100
AcDbEntity
  8
L-ZISSEN
100
AcDbLine
 10
245.8269805649369
 20
182.3994182034105
 30
-1.083937261185681
 11
245.7397052402966
 21
187.3994182034105
 31
-1.083937261185681
  0
LINE
  5
98
330
2
100
AcDbEntity
  8
L-ZISSEN
100
AcDbLine
 10
261.9142558895773
 20
187.3994182034105
 30
-1.083937261185681
 11
261.826980564937
 21
182.3994182034105
 31
-1.083937261185681
  0
LINE
  5
99
330
2
100
AcDbEntity
  8
L-ZISSEN
100
AcDbLine
 10
277.3452376860144
 20
179.3994182034104
 30
-0.4755249393164372
 11
293.3448870966159
 21
179.3994182034104
 31
-0.4755249393164372
  0
LINE
  5
9A
330
2
100
AcDbEntity
  8
L-ZISSEN
100
AcDbLine
 10
277.2047216874066
 20
187.3994182034105
 30
-0.4755249393164372
 11
277.3452376860144
 21
179.3994182034104
 31
-0.4755249393164372
  0
LINE
  5
9B
330
2
100
AcDbEntity
  8
L-ZISSEN
100
AcDbLine
 10
293.3448870966159
 20
179.3994182034104
 30
-0.4755249393164372
 11
293.4840705536673
 21
187.3994182034105
 31
-0.4755249393164372
  0
LINE
  5
9C
330
2
100
AcDbEntity
  8
L-ZISSEN
100
AcDbLine
 10
223.7317795649369
 20
323.7095460034095
 30
-0.1104775461948838
 11
223.7269595649349
 21
321.9095494034106
 31
-0.1104775461948838
  0
LINE
  5
9D
330
2
100
AcDbEntity
  8
L-ZISSEN
100
AcDbLine
 10
211.9318155649352
 20
323.7411040034101
 30
-0.1104775461948838
 11
211.9270015649354
 21
321.9411074034112
 31
-0.1104775461948838
  0
LINE
  5
9E
330
2
100
AcDbEntity
  8
L-ZISSEN
100
AcDbLine
 10
223.7269595649349
 20
321.9095494034106
 30
-0.1104775461948838
 11
211.9270015649354
 21
321.9411074034112
 31
-0.1104775461948838
  0
POINT
  5
9F
330
2
100
AcDbEntity
  8
L-ZISSEN
100
AcDbPoint
 10
217.8269795649366
 20
321.92532840341
 30
-0.1104775461948838
  0
LINE
  5
A0
330
2
100
AcDbEntity
  8
L-ZISSEN
100
AcDbLine
 10
224.0903295649359
 20
326.9085955034104
 30
-0.1104775461948838
 11
211.5903765649354
 21
326.9420255034099
 31
-0.1104775461948838
  0
LINE
  5
A1
330
2
100
AcDbEntity
  8
L-ZISSEN
100
AcDbLine
 10
223.7317795649369
 20
323.7095460034095
 30
-0.1104775461948838
 11
211.9318155649352
 21
323.7411040034101
 31
-0.1104775461948838
  0
LINE
  5
A2
330
2
100
AcDbEntity
  8
L-ZISSEN
100
AcDbLine
 10
223.7349895649358
 20
324.909538703411
 30
-0.1104775461948838
 11
211.9350245649357
 21
324.941096603409
 31
-0.1104775461948838
  0
LINE
  5
A3
330
2
100
AcDbEntity
  8
L-ZISSEN
100
AcDbLine
 10
213.7850195649361
 20
324.9361490034104
 30
-0.1104775461948838
 11
213.7818095649354
 21
323.7361563034107
 31
-0.1104775461948838
  0
LINE
  5
A4
330
2
100
AcDbEntity
  8
L-ZISSEN
100
AcDbLine
 10
211.9403735649366
 20
326.9410895034095
 30
-0.1104775461948838
 11
211.9350245649357
 21
324.941096603409
 31
-0.1104775461948838
  0
LINE
  5
A5
330
2
100
AcDbEntity
  8
L-ZISSEN
100
AcDbLine
 10
221.8849895649373
 20
324.9144863034095
 30
-0.1104775461948838
 11
221.8817795649365
 21
323.7144937034106
 31
-0.1104775461948838
  0
LINE
  5
A6
330
2
100
AcDbEntity
  8
L-ZISSEN
100
AcDbLine
 10
223.7403295649355
 20
326.9095315034107
 30
-0.1104775461948838
 11
223.7349895649358
 21
324.909538703411
 31
-0.1104775461948838
  0
ARC
  5
A7
330
2
100
AcDbEntity
  8
L-ZISSEN
100
AcDbCircle
 10
309.2399805649356
 20
316.8994182034105
 30
-0.4755249393164372
 40
1.0
100
AcDbArc
 50
90.0
 51
178.9999999999982
  0
LINE
  5
A8
330
2
100
AcDbEntity
  8
L-TYUSIN
100
AcDbLine
 10
278.7899978614561
 20
333.3668713574224
 30
-0.4755249393164372
 11
301.808752144095
 21
333.3668713574224
 31
-0.4755249393164372
  0
LINE
  5
A9
330
2
100
AcDbEntity
  8
L-ZISSEN
100
AcDbLine
 10
295.98111163279
 20
327.6546584251371
 30
-0.4755249393164372
 11
288.1740135439595
 21
325.5851152685229
 31
-0.4755249393164372
  0
LINE
  5
AA
330
2
100
AcDbEntity
  8
L-ZISSEN
100
AcDbLine
 10
282.506372380521
 20
331.283147881418
 30
-0.4755249393164372
 11
285.340191194474
 21
328.4341404138057
 31
-0.4755249393164372
  0
LINE
  5
AB
330
2
100
AcDbEntity
  8
L-ZISSEN
100
AcDbLine
 10
281.6358228166102
 20
333.2143010485651
 30
-0.4755249393164372
 11
284.1106930152304
 21
333.2076860646284
 31
-0.4755249393164372
  0
LINE
  5
AC
330
2
100
AcDbEntity
  8
L-ZISSEN
100
AcDbLine
 10
283.0283515353253
 20
333.210586616644
 30
-0.4755249393164372
 11
282.5063674307732
 21
331.2831528311659
 31
-0.4755249393164372
  0
LINE
  5
AD
330
2
100
AcDbEntity
  8
L-ZISSEN
100
AcDbLine
 10
288.1740029373579
 20
325.5851258751245
 30
-0.4755249393164372
 11
285.340191194474
 21
328.4341404138057
 31
-0.4755249393164372
  0
LINE
  5
AE
330
2
100
AcDbEntity
  8
L-ZISSEN
100
AcDbLine
 10
287.1088985994601
 20
330.1934150143297
 30
-0.4755249393164372
 11
284.1117381190533
 21
333.2066409608057
 31
-0.4755249393164372
  0
LINE
  5
AF
330
2
100
AcDbEntity
  8
L-ZISSEN
100
AcDbLine
 10
311.3449805649352
 20
321.3994182034105
 30
-0.4755249393164372
 11
311.3449805649352
 21
317.8994182034104
 31
-0.4755249393164372
  0
LINE
  5
B0
330
2
100
AcDbEntity
  8
L-ZISSEN
100
AcDbLine
 10
319.8269805649351
 20
327.3994182034105
 30
-0.4755249393164372
 11
313.8269805649351
 21
327.3994182034105
 31
-0.4755249393164372
  0
LINE
  5
B1
330
2
100
AcDbEntity
  8
L-ZISSEN
100
AcDbLine
 10
313.8269805649351
 20
328.3994182034104
 30
-0.4755249393164372
 11
310.3269805649351
 21
328.3994182034104
 31
-0.4755249393164372
  0
LINE
  5
B2
330
2
100
AcDbEntity
  8
L-ZISSEN
100
AcDbLine
 10
346.8269805649347
 20
329.0460083018097
 30
-1.65947215136655
 11
341.8269805649352
 21
329.0460083018097
 31
-1.65947215136655
  0
LINE
  5
B3
330
2
100
AcDbEntity
  8
L-ZISSEN
100
AcDbLine
 10
341.8269805649347
 20
329.1769379096558
 30
-1.65947215136655
 11
341.8269805649347
 21
329.7979314925378
 31
-1.65947215136655
  0
LINE
  5
B4
330
2
100
AcDbEntity
  8
L-ZISSEN
100
AcDbLine
 10
329.3269805649354
 20
395.5998558791013
 30
-1.65947215136655
 11
349.9262298032085
 21
395.5998558791013
 31
-1.65947215136655
  0
LINE
  5
B5
330
2
100
AcDbEntity
  8
L-ZISSEN
100
AcDbLine
 10
329.3269805649354
 20
394.0998558791013
 30
-1.65947215136655
 11
349.9262298032085
 21
394.0998558791013
 31
-1.65947215136655
  0
LINE
  5
B6
330
2
100
AcDbEntity
  8
L-ZISSEN
100
AcDbLine
 10
364.3269805649353
 20
403.8498558791015
 30
-1.65947215136655
 11
329.3269805649354
 21
403.8498558791015
 31
-1.65947215136655
  0
LINE
  5
B7
330
2
100
AcDbEntity
  8
L-ZISSEN
100
AcDbLine
 10
365.8269805649356
 20
395.8498558791013
 30
-1.65947215136655
 11
327.8269805649354
 21
395.8498558791013
 31
-1.65947215136655
  0
LINE
  5
B8
330
2
100
AcDbEntity
  8
L-ZISSEN
100
AcDbLine
 10
351.1251876840365
 20
393.8498558791014
 30
-1.65947215136655
 11
327.8269805649354
 21
393.8498558791014
 31
-1.65947215136655
  0
LINE
  5
B9
330
2
100
AcDbEntity
  8
L-ZISSEN
100
AcDbLine
 10
327.8269805649354
 20
389.3498558791016
 30
-1.65947215136655
 11
355.9188704903276
 21
389.3498558791013
 31
-1.65947215136655
  0
LINE
  5
BA
330
2
100
AcDbEntity
  8
L-ZISSEN
100
AcDbLine
 10
341.8269805649352
 20
351.3994182034104
 30
-0.4755249393164372
 11
319.8269805649351
 21
351.3994182034104
 31
-0.4755249393164372
  0
LINE
  5
BB
330
2
100
AcDbEntity
  8
L-TYUSIN
100
AcDbLine
 10
229.5269805649336
 20
398.2814014189953
 30
0.0
 11
229.5269805649331
 21
433.752828107271
 31
0.0
  0
LINE
  5
BC
330
2
100
AcDbEntity
  8
L-ZISSEN
100
AcDbLine
 10
236.5269905649351
 20
426.8472962033939
 30
-1.216824643738494
 11
234.5310105649335
 21
427.382117203395
 31
-1.216824643738494
  0
LINE
  5
BD
330
2
100
AcDbEntity
  8
L-ZISSEN
100
AcDbLine
 10
233.0269805649335
 20
419.3994182033949
 30
-1.216824643738494
 11
233.0269805649335
 21
427.382117203395
 31
-1.216824643738494
  0
LINE
  5
BE
330
2
100
AcDbEntity
  8
L-ZISSEN
100
AcDbLine
 10
222.5269805649335
 20
426.8473322033933
 30
-1.216824643738494
 11
224.522960564935
 21
427.3821512033938
 31
-1.216824643738494
  0
LINE
  5
BF
330
2
100
AcDbEntity
  8
L-ZISSEN
100
AcDbLine
 10
226.0269805649335
 20
419.3994182033949
 30
-1.216824643738494
 11
226.0269805649335
 21
427.382117203395
 31
-1.216824643738494
  0
LINE
  5
C0
330
2
100
AcDbEntity
  8
L-ZISSEN
100
AcDbLine
 10
250.8269805649351
 20
381.8994668574589
 30
-1.083937261185683
 11
250.8269805649351
 21
481.8994182034105
 31
-1.083937261185683
  0
LINE
  5
C1
330
2
100
AcDbEntity
  8
L-ZISSEN
100
AcDbLine
 10
329.8269805649347
 20
363.5460083018096
 30
-7.392603129315311
 11
310.3269805649356
 21
363.5460083018096
 31
-6.663172371698182
  0
LINE
  5
C2
330
2
100
AcDbEntity
  8
L-ZISSEN
100
AcDbLine
 10
274.1276742720722
 20
341.2590305029402
 30
-0.4755249393164372
 11
282.4938243464248
 21
349.5805509671156
 31
-0.4755249393164372
  0
LINE
  5
C3
330
2
100
AcDbEntity
  8
L-ZISSEN
100
AcDbLine
 10
273.2814211092936
 20
342.1098232912527
 30
-0.4755249393164372
 11
281.647570547253
 21
350.4313429776098
 31
-0.4755249393164372
  0
LINE
  5
C4
330
2
100
AcDbEntity
  8
L-ZISSEN
100
AcDbLine
 10
272.0120395620083
 20
343.3860213479113
 30
-0.4755249393164372
 11
280.3781847573257
 21
351.7075367916263
 31
-0.4755249393164372
  0
LINE
  5
C5
330
2
100
AcDbEntity
  8
L-ZISSEN
100
AcDbLine
 10
275.289957567702
 20
339.5942205600567
 30
-0.4755249393164372
 11
284.15239767821
 21
348.4093835111755
 31
-0.4755249393164372
  0
LINE
  5
C6
330
2
100
AcDbEntity
  8
L-ZISSEN
100
AcDbLine
 10
260.8269805649333
 20
371.8994182034105
 30
-1.083937261185683
 11
260.8269805649352
 21
381.8994668574589
 31
-1.083937261185683
  0
LINE
  5
C7
330
2
100
AcDbEntity
  8
L-TYUSIN
100
AcDbLine
 10
265.1579805650025
 20
344.3994182034108
 30
-0.4755249393164292
 11
242.4959805648676
 21
344.3994182034108
 31
-0.4755249393164292
  0
LINE
  5
C8
330
2
100
AcDbEntity
  8
L-TYUSIN
100
AcDbLine
 10
265.1579805650025
 20
344.3994182034108
 30
-0.4755249393164292
 11
242.4959805648676
 21
344.3994182034108
 31
-0.4755249393164292
  0
LINE
  5
C9
330
2
100
AcDbEntity
  8
L-ZISSEN
100
AcDbLine
 10
224.8858595649371
 20
345.9249172034094
 30
-0.1104775461948838
 11
224.8751095649359
 21
341.9065522034095
 31
-0.1104775461948838
  0
ARC
  5
CA
330
2
100
AcDbEntity
  8
L-ZISSEN
100
AcDbCircle
 10
217.880469564935
 20
341.9252572034099
 30
-0.1104775461948838
 40
4.5
100
AcDbArc
 50
359.8467499999977
 51
73.71918000000618
  0
ARC
  5
CB
330
2
100
AcDbEntity
  8
L-ZISSEN
100
AcDbCircle
 10
217.880469564935
 20
341.9252572034099
 30
-0.1104775461948838
 40
4.5
100
AcDbArc
 50
359.8467499999977
 51
73.71918000000618
  0
LINE
  5
CC
330
2
100
AcDbEntity
  8
L-ZISSEN
100
AcDbLine
 10
210.8965745649356
 20
345.9623302034094
 30
-0.1104775461948838
 11
210.8858275649372
 21
341.9439652034095
 31
-0.1104775461948838
  0
ARC
  5
CD
330
2
100
AcDbEntity
  8
L-ZISSEN
100
AcDbCircle
 10
217.880469564935
 20
341.9252572034099
 30
-0.1104775461948838
 40
4.5
100
AcDbArc
 50
105.9743599999946
 51
179.8467900000014
  0
ARC
  5
CE
330
2
100
AcDbEntity
  8
L-ZISSEN
100
AcDbCircle
 10
217.880469564935
 20
341.9252572034099
 30
-0.1104775461948838
 40
4.5
100
AcDbArc
 50
105.3195899999996
 51
179.8467300000022
  0
ARC
  5
CF
330
2
100
AcDbEntity
  8
L-ZISSEN
100
AcDbCircle
 10
217.8427295649353
 20
341.89941820341
 30
-0.1104775461948838
 40
6.0
100
AcDbArc
 50
97.34936000000143
 51
221.7974000000053
  0
ARC
  5
D0
330
2
100
AcDbEntity
  8
L-ZISSEN
100
AcDbCircle
 10
217.8427295649353
 20
341.89941820341
 30
-0.1104775461948838
 40
6.0
100
AcDbArc
 50
318.9840200000032
 51
94.49178000000054
  0
LINE
  5
D1
330
2
100
AcDbEntity
  8
L-ZISSEN
100
AcDbLine
 10
216.6461195649362
 20
347.7788902034105
 30
-0.1104775461948838
 11
216.6144295649364
 21
335.92862120341
 31
-0.1104775461948838
  0
LINE
  5
D2
330
2
100
AcDbEntity
  8
L-ZISSEN
100
AcDbLine
 10
219.1460695649357
 20
347.7561522034091
 30
-0.1104775461948838
 11
219.1144195649367
 21
335.9219352034094
 31
-0.1104775461948838
  0
LINE
  5
D3
330
2
100
AcDbEntity
  8
L-ZISSEN
100
AcDbLine
 10
210.8750815649373
 20
337.9256002034096
 30
-0.1104775461948838
 11
210.8858275649372
 21
341.9439652034095
 31
-0.1104775461948838
  0
LINE
  5
D4
330
2
100
AcDbEntity
  8
L-ZISSEN
100
AcDbLine
 10
213.3804895649364
 20
341.9372912034093
 30
-0.1104775461948838
 11
213.3691195649362
 21
337.6873072034111
 31
-0.1104775461948838
  0
LINE
  5
D5
330
2
100
AcDbEntity
  8
L-ZISSEN
100
AcDbLine
 10
216.6144295649364
 20
335.92862120341
 30
-0.1104775461948838
 11
211.580075564937
 21
335.9420852034097
 31
-0.1104775461948838
  0
LINE
  5
D6
330
2
100
AcDbEntity
  8
L-ZISSEN
100
AcDbLine
 10
216.6191095649364
 20
337.6786152034099
 30
-0.1104775461948838
 11
213.3691195649362
 21
337.6873072034111
 31
-0.1104775461948838
  0
LINE
  5
D7
330
2
100
AcDbEntity
  8
L-ZISSEN
100
AcDbLine
 10
212.5967885649361
 20
336.9254362034105
 30
-0.1104775461948838
 11
210.8750775649359
 21
337.9256162034096
 31
-0.1104775461948838
  0
LINE
  5
D8
330
2
100
AcDbEntity
  8
L-ZISSEN
100
AcDbLine
 10
213.362759564935
 20
337.6873232034093
 30
-0.1104775461948838
 11
211.6144645649356
 21
335.94835120341
 31
-0.1104775461948838
  0
POINT
  5
D9
330
2
100
AcDbEntity
  8
L-ZISSEN
100
AcDbPoint
 10
217.8269795649366
 20
341.9345042034099
 30
-0.1104775461948838
  0
LINE
  5
DA
330
2
100
AcDbEntity
  8
L-ZISSEN
100
AcDbLine
 10
222.3804495649356
 20
341.9132222034102
 30
-0.1104775461948838
 11
222.3690895649351
 21
337.6632372034098
 31
-0.1104775461948838
  0
LINE
  5
DB
330
2
100
AcDbEntity
  8
L-ZISSEN
100
AcDbLine
 10
224.8643695649361
 20
337.8881872034096
 30
-0.1104775461948838
 11
224.8751095649359
 21
341.9065522034095
 31
-0.1104775461948838
  0
LINE
  5
DC
330
2
100
AcDbEntity
  8
L-ZISSEN
100
AcDbLine
 10
222.3690895649351
 20
337.6632372034098
 30
-0.1104775461948838
 11
219.3481195649356
 21
337.6713162034109
 31
-0.1104775461948838
  0
LINE
  5
DD
330
2
100
AcDbEntity
  8
L-ZISSEN
100
AcDbLine
 10
224.1143995649372
 20
335.90856320341
 30
-0.1104775461948838
 11
219.1144195649367
 21
335.9219352034094
 31
-0.1104775461948838
  0
LINE
  5
DE
330
2
100
AcDbEntity
  8
L-ZISSEN
100
AcDbLine
 10
223.1323695649361
 20
336.8943772034096
 30
-0.1104775461948838
 11
224.8643695649361
 21
337.888180203409
 31
-0.1104775461948838
  0
LINE
  5
DF
330
2
100
AcDbEntity
  8
L-ZISSEN
100
AcDbLine
 10
224.114409564937
 20
335.9070842034095
 30
-0.1104775461948838
 11
222.3690895649351
 21
337.6617592034097
 31
-0.1104775461948838
  0
LINE
  5
E0
330
2
100
AcDbEntity
  8
L-ZISSEN
100
AcDbLine
 10
217.9020195649363
 20
349.9819962034095
 30
-0.1104775461948838
 11
224.8858595649371
 21
345.924932203409
 31
-0.1104775461948838
  0
LINE
  5
E1
330
2
100
AcDbEntity
  8
L-ZISSEN
100
AcDbLine
 10
217.9020095649366
 20
349.9819852034095
 30
-0.1104775461948838
 11
210.8965725649368
 21
345.9623332034104
 31
-0.1104775461948838
  0
CIRCLE
  5
E2
330
2
100
AcDbEntity
  8
L-ZISSEN
100
AcDbCircle
 10
253.826980564935
 20
344.3994182034108
 30
-0.4755249393164292
 40
8.330999999999999
  0
LINE
  5
E3
330
2
100
AcDbEntity
  8
L-ZISSEN
100
AcDbLine
 10
275.538106793065
 20
339.8410460815249
 30
-0.4755249393164372
 11
274.1276742720722
 21
341.2590305029402
 31
-0.4755249393164372
  0
LINE
  5
E4
330
2
100
AcDbEntity
  8
L-ZISSEN
100
AcDbLine
 10
275.4393202987758
 20
342.5636795666248
 30
-0.4755249393164372
 11
274.5930672067111
 21
343.4144722842258
 31
-0.4755249393164372
  0
LINE
  5
E5
330
2
100
AcDbEntity
  8
L-ZISSEN
100
AcDbLine
 10
273.2814211092936
 20
342.1098232912527
 30
-0.4755249393164372
 11
272.0120395620083
 21
343.3860213479113
 31
-0.4755249393164372
  0
ARC
  5
E6
330
2
100
AcDbEntity
  8
L-TYUSIN
100
AcDbCircle
 10
239.5269805649336
 20
398.2814014189955
 30
0.0
 40
10.0
100
AcDbArc
 50
180.0000000000007
 51
225.0
  0
LINE
  5
E7
330
2
100
AcDbEntity
  8
L-ZISSEN
100
AcDbLine
 10
235.4269825649338
 20
414.5994082033941
 30
-1.216824643738494
 11
223.6269785649332
 21
414.5994082033941
 31
-1.216824643738494
  0
LINE
  5
E8
330
2
100
AcDbEntity
  8
L-ZISSEN
100
AcDbLine
 10
235.4269825649338
 20
416.3994182033949
 30
-1.216824643738494
 11
223.6269785649332
 21
416.3994182033949
 31
-1.216824643738494
  0
LINE
  5
E9
330
2
100
AcDbEntity
  8
L-ZISSEN
  6
CONTINUOUS
 62
     7
100
AcDbLine
 10
224.6996632979338
 20
417.8994182033949
 30
-1.216824643738494
 11
234.3542978319332
 21
417.899418203395
 31
-1.216824643738494
  0
LINE
  5
EA
330
2
100
AcDbEntity
  8
L-ZISSEN
100
AcDbLine
 10
223.1996632979338
 20
419.3994182033949
 30
-1.216824643738494
 11
236.1996632979338
 21
419.399418203395
 31
-1.216824643738494
  0
LINE
  5
EB
330
2
100
AcDbEntity
  8
L-ZISSEN
100
AcDbLine
 10
235.5269805649335
 20
419.3994182033949
 30
-1.216824643738494
 11
223.5411405649341
 21
419.3994182033949
 31
-1.216824643738494
  0
LINE
  5
EC
330
2
100
AcDbEntity
  8
L-ZISSEN
100
AcDbLine
 10
223.6269785649332
 20
416.3994182033949
 30
-1.216824643738494
 11
223.6269785649332
 21
414.5994082033941
 31
-1.216824643738494
  0
LINE
  5
ED
330
2
100
AcDbEntity
  8
L-ZISSEN
100
AcDbLine
 10
222.5269805649335
 20
419.6711692033933
 30
-1.216824643738494
 11
222.5269805649335
 21
426.8472962033939
 31
-1.216824643738494
  0
LINE
  5
EE
330
2
100
AcDbEntity
  8
L-ZISSEN
100
AcDbLine
 10
223.5269705649337
 20
419.4032162033947
 30
-1.216824643738494
 11
222.5269905649351
 21
419.6711642033952
 31
-1.216824643738494
  0
LINE
  5
EF
330
2
100
AcDbEntity
  8
L-ZISSEN
100
AcDbLine
 10
224.6996632979338
 20
416.399418203395
 30
-1.460189572486187
 11
224.6996632979338
 21
419.3994182033949
 31
-1.460189572486187
  0
LINE
  5
F0
330
2
100
AcDbEntity
  8
L-ZISSEN
100
AcDbLine
 10
235.4269825649338
 20
416.3994182033949
 30
-1.216824643738494
 11
235.4269825649338
 21
414.5994082033941
 31
-1.216824643738494
  0
LINE
  5
F1
330
2
100
AcDbEntity
  8
L-ZISSEN
100
AcDbLine
 10
234.3542978319332
 20
416.3994182033949
 30
-1.460189572486187
 11
234.3542978319332
 21
419.399418203395
 31
-1.460189572486187
  0
LINE
  5
F2
330
2
100
AcDbEntity
  8
L-ZISSEN
100
AcDbLine
 10
236.5269805649335
 20
419.6711692033933
 30
-1.216824643738494
 11
236.5269805649335
 21
426.8472962033939
 31
-1.216824643738494
  0
LINE
  5
F3
330
2
100
AcDbEntity
  8
L-ZISSEN
100
AcDbLine
 10
235.5269805649335
 20
419.4032092033941
 30
-1.216824643738494
 11
236.5269705649337
 21
419.671155203394
 31
-1.216824643738494
  0
LINE
  5
F4
330
2
100
AcDbEntity
  8
L-ZISSEN
100
AcDbLine
 10
250.8269805649351
 20
412.8580149731335
 30
-1.083937261185683
 11
261.0132211370319
 21
412.8580149731335
 31
-1.083937261185683
  0
LINE
  5
F5
330
2
100
AcDbEntity
  8
L-ZISSEN
100
AcDbLine
 10
261.0136868213967
 20
414.8787409152967
 30
-1.083937261185683
 11
251.3269805649351
 21
414.8787409152967
 31
-1.083937261185683
  0
LINE
  5
F6
330
2
100
AcDbEntity
  8
L-ZISSEN
100
AcDbLine
 10
261.0138427138872
 20
418.9201927996248
 30
-1.083937261185683
 11
251.3269805649351
 21
418.9201927996248
 31
-1.083937261185683
  0
LINE
  5
F7
330
2
100
AcDbEntity
  8
L-ZISSEN
100
AcDbLine
 10
250.8269805649351
 20
420.940918741788
 30
-1.083937261185683
 11
261.0135651777027
 21
420.940918741788
 31
-1.083937261185683
  0
LINE
  5
F8
330
2
100
AcDbEntity
  8
L-ZISSEN
100
AcDbLine
 10
253.8269805649351
 20
420.940918741788
 30
-1.083937261185683
 11
253.8269805649351
 21
412.8580149731335
 31
-1.083937261185683
  0
LINE
  5
F9
330
2
100
AcDbEntity
  8
L-ZISSEN
100
AcDbLine
 10
329.8269805649347
 20
363.5460083018096
 30
-1.65947215136655
 11
329.8269805649347
 21
389.3498558791029
 31
-1.65947215136655
  0
LINE
  5
FA
330
2
100
AcDbEntity
  8
L-TYUSIN
100
AcDbLine
 10
283.8269805649352
 20
368.8994182034105
 30
-0.4755249393164372
 11
283.8269805649352
 21
424.3997182034101
 31
-0.4755249393164372
  0
LINE
  5
FB
330
2
100
AcDbEntity
  8
L-ZISSEN
100
AcDbLine
 10
293.489850698983
 20
336.540328407621
 30
-0.4755249393164372
 11
290.4926979967522
 21
339.5535607180563
 31
-0.4755249393164372
  0
LINE
  5
FC
330
2
100
AcDbEntity
  8
L-ZISSEN
100
AcDbLine
 10
290.5000943336831
 20
340.6384053559668
 30
-0.4755249393164372
 11
292.4247619174329
 21
341.1486048189038
 31
-0.4755249393164372
  0
LINE
  5
FD
330
2
100
AcDbEntity
  8
L-ZISSEN
100
AcDbLine
 10
290.4993165162227
 20
342.0284259669287
 30
-0.4755249393164372
 11
284.15239767821
 21
348.4093835111755
 31
-0.4755249393164372
  0
LINE
  5
FE
330
2
100
AcDbEntity
  8
L-ZISSEN
100
AcDbLine
 10
290.4972065095885
 20
339.5580466034783
 30
-0.4755249393164372
 11
290.5037988661097
 21
342.0239167469854
 31
-0.4755249393164372
  0
LINE
  5
FF
330
2
100
AcDbEntity
  8
L-ZISSEN
100
AcDbLine
 10
283.9042505741669
 20
348.1625601110272
 30
-0.4755249393164372
 11
282.4938243464248
 21
349.5805509671156
 31
-0.4755249393164372
  0
LINE
  5
100
330
2
100
AcDbEntity
  8
L-ZISSEN
100
AcDbLine
 10
281.647570547253
 20
350.4313429776098
 30
-0.4755249393164372
 11
280.3781847573257
 21
351.7075367916263
 31
-0.4755249393164372
  0
POINT
  5
101
330
2
100
AcDbEntity
  8
L-ZISSEN
100
AcDbPoint
 10
276.1951128667722
 20
347.5467797768751
 30
-0.4755249393164372
  0
LINE
  5
102
330
2
100
AcDbEntity
  8
L-ZISSEN
100
AcDbLine
 10
281.1821818552536
 20
348.2759054389637
 30
-0.4755249393164372
 11
280.3359286924776
 21
349.126698227276
 31
-0.4755249393164372
  0
LINE
  5
103
330
2
100
AcDbEntity
  8
L-ZISSEN
100
AcDbLine
 10
292.4247477752965
 20
341.1486133041842
 30
-0.4755249393164372
 11
295.2585623466084
 21
338.2996015939311
 31
-0.4755249393164372
  0
LINE
  5
104
330
2
100
AcDbEntity
  8
L-ZISSEN
100
AcDbLine
 10
298.092376210815
 20
335.450589176572
 30
-0.4755249393164372
 11
295.2585623466084
 21
338.2996015939311
 31
-0.4755249393164372
  0
LINE
  5
105
330
2
100
AcDbEntity
  8
L-ZISSEN
100
AcDbLine
 10
328.8269805649356
 20
351.516008301811
 30
-1.65947215136655
 11
328.8269805649356
 21
363.5460083018096
 31
-1.65947215136655
  0
LINE
  5
106
330
2
100
AcDbEntity
  8
L-ZISSEN
100
AcDbLine
 10
319.8269805649351
 20
339.3994182034105
 30
-0.4755249393164372
 11
313.8269805649351
 21
339.3994182034105
 31
-0.4755249393164372
  0
LINE
  5
107
330
2
100
AcDbEntity
  8
L-ZISSEN
100
AcDbLine
 10
313.8269805649351
 20
338.3994182034105
 30
-0.4755249393164372
 11
310.3269805649351
 21
338.3994182034105
 31
-0.4755249393164372
  0
LINE
  5
108
330
2
100
AcDbEntity
  8
L-ZISSEN
100
AcDbLine
 10
314.8269805649352
 20
363.8994182034096
 30
-1.083937261185683
 11
314.8269805649352
 21
366.8994182034105
 31
-1.083937261185683
  0
ARC
  5
109
330
2
100
AcDbEntity
  8
L-ZISSEN
100
AcDbCircle
 10
329.3269805649354
 20
402.3498558791016
 30
-1.659472151366548
 40
1.5
100
AcDbArc
 50
90.0
 51
180.0
  0
LINE
  5
10A
330
2
100
AcDbEntity
  8
L-ZISSEN
100
AcDbLine
 10
327.8269805649354
 20
389.3498558791013
 30
-1.65947215136655
 11
327.8269805649354
 21
393.8498558791016
 31
-1.65947215136655
  0
LINE
  5
10B
330
2
100
AcDbEntity
  8
L-ZISSEN
100
AcDbLine
 10
327.8269805649354
 20
395.8498558791016
 30
-1.65947215136655
 11
327.8269805649354
 21
402.3498558791016
 31
-1.65947215136655
  0
ARC
  5
10C
330
2
100
AcDbEntity
  8
L-ZISSEN
100
AcDbCircle
 10
329.3269805649354
 20
394.8498558791013
 30
-1.65947215136655
 40
0.75
100
AcDbArc
 50
90.0
 51
270.0
  0
LINE
  5
10D
330
2
100
AcDbEntity
  8
L-ZISSEN
100
AcDbLine
 10
330.3269805649354
 20
395.8498558791013
 30
-1.65947215136655
 11
330.3269805649354
 21
395.5998558791013
 31
-1.65947215136655
  0
LINE
  5
10E
330
2
100
AcDbEntity
  8
L-ZISSEN
100
AcDbLine
 10
330.3269805649354
 20
394.0998558791013
 30
-1.65947215136655
 11
330.3269805649354
 21
393.8498558791014
 31
-1.65947215136655
  0
LINE
  5
10F
330
2
100
AcDbEntity
  8
L-ZISSEN
100
AcDbLine
 10
282.5269805649318
 20
506.3181682034105
 30
-1.216824643738492
 11
269.5269805649318
 21
506.3181682034105
 31
-1.216824643738492
  0
LINE
  5
110
330
2
100
AcDbEntity
  8
L-ZISSEN
100
AcDbLine
 10
254.8269805649352
 20
481.8994182034105
 30
-0.4755249393164434
 11
275.8269805649351
 21
481.8994182034105
 31
-1.083937261185683
  0
LINE
  5
111
330
2
100
AcDbEntity
  8
L-ZISSEN
100
AcDbLine
 10
233.9125905649347
 20
427.9821152033947
 30
-1.216824643738494
 11
225.1611205649336
 21
427.9821152033947
 31
-1.216824643738494
  0
LINE
  5
112
330
2
100
AcDbEntity
  8
L-ZISSEN
100
AcDbLine
 10
234.5310105649335
 20
427.382117203395
 30
-1.216824643738494
 11
224.522960564935
 21
427.382117203395
 31
-1.216824643738494
  0
LINE
  5
113
330
2
100
AcDbEntity
  8
L-ZISSEN
100
AcDbLine
 10
234.5310105649335
 20
427.382117203395
 30
-1.216824643738494
 11
224.522960564935
 21
427.382117203395
 31
-1.216824643738494
  0
LINE
  5
114
330
2
100
AcDbEntity
  8
L-ZISSEN
100
AcDbLine
 10
224.5216005649348
 20
427.3820912033953
 30
-1.216824643738494
 11
225.1611405649331
 21
427.982086203394
 31
-1.216824643738494
  0
LINE
  5
115
330
2
100
AcDbEntity
  8
L-ZISSEN
100
AcDbLine
 10
225.1413705649341
 20
427.9821142033944
 30
-1.216824643738494
 11
225.2498105649341
 21
431.3802752033954
 31
-1.216824643738494
  0
LINE
  5
116
330
2
100
AcDbEntity
  8
L-ZISSEN
100
AcDbLine
 10
224.5223705649335
 20
427.3961492033942
 30
-1.216824643738494
 11
224.6501305649347
 21
431.399413203395
 31
-1.216824643738494
  0
LINE
  5
117
330
2
100
AcDbEntity
  8
L-TYUSIN
100
AcDbLine
 10
229.5269805649332
 20
431.3994182033949
 30
-1.216824643738494
 11
229.5269805649332
 21
448.6785764121732
 31
-1.216824643738494
  0
LINE
  5
118
330
2
100
AcDbEntity
  8
L-ZISSEN
100
AcDbLine
 10
233.9126305649336
 20
427.9821152033947
 30
-1.216824643738494
 11
233.8031605649342
 21
431.4121162033954
 31
-1.216824643738494
  0
LINE
  5
119
330
2
100
AcDbEntity
  8
L-ZISSEN
100
AcDbLine
 10
234.531640564934
 20
427.3961502033945
 30
-1.216824643738494
 11
234.4038805649346
 21
431.3994182033949
 31
-1.216824643738494
  0
LINE
  5
11A
330
2
100
AcDbEntity
  8
L-ZISSEN
100
AcDbLine
 10
234.5323905649332
 20
427.3821152033944
 30
-1.216824643738494
 11
233.8928305649336
 21
427.9821082033942
 31
-1.216824643738494
  0
LINE
  5
11B
330
2
100
AcDbEntity
  8
L-ZISSEN
100
AcDbLine
 10
249.5269805649334
 20
481.8994182034116
 30
-0.4755249393164372
 11
254.8269805649333
 21
481.8994182034116
 31
-0.4755249393164372
1001
ACAD
1000
ASC_BOUNDS
1002
{
1070
    19
1002
}
  0
LINE
  5
11C
330
2
100
AcDbEntity
  8
L-ZISSEN
100
AcDbLine
 10
254.8269805649315
 20
496.3994182034098
 30
-0.6084123218692526
 11
249.5269805649334
 21
496.3994182034098
 31
-0.6084123218692526
  0
LINE
  5
11D
330
2
100
AcDbEntity
  8
L-ZISSEN
100
AcDbLine
 10
269.5269805649318
 20
502.1494182034082
 30
-1.216824643738492
 11
258.2269805649316
 21
502.1494182034082
 31
-1.216824643738492
  0
ARC
  5
11E
330
2
100
AcDbEntity
  8
L-ZISSEN
100
AcDbCircle
 10
258.2269805649316
 20
502.9494182034079
 30
-1.216824643738492
 40
0.8000000000000001
100
AcDbArc
 50
180.0
 51
270.0
  0
LINE
  5
11F
330
2
100
AcDbEntity
  8
L-ZISSEN
100
AcDbLine
 10
254.8269805649315
 20
506.6494182034091
 30
-1.216824643738492
 11
257.4269805649318
 21
506.6494182034091
 31
-1.216824643738492
  0
LINE
  5
120
330
2
100
AcDbEntity
  8
L-ZISSEN
100
AcDbLine
 10
275.8269805649351
 20
464.3994182034086
 30
-1.083937261185683
 11
275.8269805649351
 21
481.8994182034105
 31
-1.083937261185683
  0
LINE
  5
121
330
2
100
AcDbEntity
  8
L-ZISSEN
100
AcDbLine
 10
295.6475638554493
 20
508.1494182034091
 30
-1.216824643738492
 11
286.4466019611258
 21
508.1494182034091
 31
-1.216824643738492
  0
LINE
  5
122
330
2
100
AcDbEntity
  8
L-ZISSEN
100
AcDbLine
 10
282.5269805649318
 20
511.3994182034105
 30
-1.216824643738492
 11
284.246601961126
 21
511.3994182034105
 31
-1.216824643738492
  0
LINE
  5
123
330
2
100
AcDbEntity
  8
L-ZISSEN
100
AcDbLine
 10
284.2466019611258
 20
508.6494182034091
 30
-1.216824643738492
 11
285.9466019611259
 21
508.6494182034091
 31
-1.216824643738492
  0
LINE
  5
124
330
2
100
AcDbEntity
  8
L-ZISSEN
100
AcDbLine
 10
286.4466019611258
 20
508.1494182034091
 30
-1.216824643738492
 11
285.9466019611259
 21
508.6494182034091
 31
-1.216824643738492
  0
LINE
  5
125
330
2
100
AcDbEntity
  8
L-ZISSEN
100
AcDbLine
 10
299.4466019611259
 20
508.8994182034091
 30
-1.216824643738492
 11
299.111665470587
 21
507.6494182034091
 31
-1.216824643738492
  0
LINE
  5
126
330
2
100
AcDbEntity
  8
L-ZISSEN
100
AcDbLine
 10
295.6475638554493
 20
508.1494182034091
 30
-1.216824643738492
 11
295.7815384516647
 21
507.6494182034091
 31
-1.216824643738492
  0
LINE
  5
127
330
2
100
AcDbEntity
  8
L-ZISSEN
100
AcDbLine
 10
299.111665470587
 20
507.6494182034091
 30
-1.216824643738492
 11
295.7815384516647
 21
507.6494182034091
 31
-1.216824643738492
  0
LINE
  5
128
330
2
100
AcDbEntity
  8
L-ZISSEN
100
AcDbLine
 10
301.2269805649316
 20
509.6494182034091
 30
-1.216824643738492
 11
299.4466019611259
 21
509.6494182034091
 31
-1.216824643738492
  0
LINE
  5
129
330
2
100
AcDbEntity
  8
L-ZISSEN
100
AcDbLine
 10
299.4466019611259
 20
509.6494182034091
 30
-1.216824643738492
 11
299.4466019611259
 21
509.3994182034091
 31
-1.216824643738492
  0
ARC
  5
12A
330
2
100
AcDbEntity
  8
L-ZISSEN
100
AcDbCircle
 10
301.8269805649315
 20
509.8994182034091
 30
-1.216824643738492
 40
1.0
100
AcDbArc
 50
270.0
 51
0.0
  0
LINE
  5
12B
330
2
100
AcDbEntity
  8
L-ZISSEN
100
AcDbLine
 10
301.8269805649315
 20
508.8994182034091
 30
-1.216824643738492
 11
301.2269805649316
 21
508.8994182034091
 31
-1.216824643738492
  0
ARC
  5
12C
330
2
100
AcDbEntity
  8
L-ZISSEN
100
AcDbCircle
 10
358.3269805649356
 20
372.0925033995758
 30
-1.659472151366554
 40
12.0
100
AcDbArc
 50
18.24524400234743
 51
45.00000000000768
  0
LINE
  5
12D
330
2
100
AcDbEntity
  8
L-ZISSEN
100
AcDbLine
 10
352.0475501467681
 20
393.2211762226611
 30
-1.65947215136655
 11
365.8980483768009
 21
379.3706779926283
 31
-1.65947215136655
  0
LINE
  5
12E
330
2
100
AcDbEntity
  8
L-ZISSEN
100
AcDbLine
 10
363.8269805649347
 20
346.0460083018097
 30
-1.65947215136655
 11
363.8269805649347
 21
389.3498558791029
 31
-1.65947215136655
  0
LINE
  5
12F
330
2
100
AcDbEntity
  8
L-ZISSEN
100
AcDbLine
 10
341.8269805649354
 20
342.707911893465
 30
-1.659472151366549
 11
366.6480483768009
 21
367.5289797053305
 31
-1.65947215136655
  0
LINE
  5
130
330
2
100
AcDbEntity
  8
L-ZISSEN
100
AcDbLine
 10
341.8269805649354
 20
340.586591549905
 30
-1.659472151366549
 11
367.562261939174
 21
366.3218729241443
 31
-1.65947215136655
  0
ARC
  5
131
330
2
100
AcDbEntity
  8
L-ZISSEN
100
AcDbCircle
 10
359.0769805649354
 20
374.807154298383
 30
-1.659472151366554
 40
12.0
100
AcDbArc
 50
314.9999999999923
 51
340.9546301094204
  0
ARC
  5
132
330
2
100
AcDbEntity
  8
L-ZISSEN
100
AcDbCircle
 10
359.5769805649354
 20
374.6000475171963
 30
-1.659472151366554
 40
10.0
100
AcDbArc
 50
314.9999999999923
 51
337.3569195194984
  0
LINE
  5
133
330
2
100
AcDbEntity
  8
L-ZISSEN
100
AcDbLine
 10
370.3864452238119
 20
375.9075073453866
 30
-1.65947215136655
 11
370.8222239375502
 21
370.9265338549278
 31
-1.65947215136655
  0
LINE
  5
134
330
2
100
AcDbEntity
  8
L-ZISSEN
100
AcDbLine
 10
368.3317371923208
 20
370.7086444980586
 30
-1.65947215136655
 11
367.8959584785825
 21
375.6896179885174
 31
-1.65947215136655
  0
LINE
  5
135
330
2
100
AcDbEntity
  8
L-ZISSEN
100
AcDbLine
 10
370.8222239375502
 20
370.9265338549278
 30
-1.65947215136655
 11
368.3317371923208
 21
370.7086444980586
 31
-1.65947215136655
  0
LINE
  5
136
330
2
100
AcDbEntity
  8
L-ZISSEN
100
AcDbLine
 10
367.8959584785825
 20
375.6896179885174
 30
-1.65947215136655
 11
370.3864452238119
 21
375.9075073453866
 31
-1.65947215136655
  0
ARC
  5
137
330
2
100
AcDbEntity
  8
L-ZISSEN
100
AcDbCircle
 10
358.8269805649356
 20
372.2996101807627
 30
-1.659472151366554
 40
10.0
100
AcDbArc
 50
19.99112546309994
 51
45.00000000000768
  0
ARC
  5
138
330
2
100
AcDbEntity
  8
L-ZISSEN
100
AcDbCircle
 10
364.3269805649353
 20
402.3498558791016
 30
-1.65947215136655
 40
1.5
100
AcDbArc
 50
0.0
 51
90.0
  0
LINE
  5
139
330
2
100
AcDbEntity
  8
L-ZISSEN
100
AcDbLine
 10
353.1082103185481
 20
394.2818363944409
 30
-1.65947215136655
 11
366.812261939174
 21
380.5777847738145
 31
-1.65947215136655
  0
LINE
  5
13A
330
2
100
AcDbEntity
  8
L-ZISSEN
100
AcDbLine
 10
365.8269805649356
 20
393.8498558791014
 30
-1.65947215136655
 11
353.5401908338876
 21
393.8498558791014
 31
-1.65947215136655
  0
ARC
  5
13B
330
2
100
AcDbEntity
  8
L-ZISSEN
100
AcDbCircle
 10
349.9262298032085
 20
391.0998558791013
 30
-1.659472151366561
 40
3.0
100
AcDbArc
 50
45.00000000000768
 51
90.0
  0
ARC
  5
13C
330
2
100
AcDbEntity
  8
L-ZISSEN
100
AcDbCircle
 10
349.9262298032085
 20
391.0998558791013
 30
-1.659472151366564
 40
4.5
100
AcDbArc
 50
45.00000000000768
 51
90.0
  0
LINE
  5
13D
330
2
100
AcDbEntity
  8
L-ZISSEN
100
AcDbLine
 10
365.8269805649354
 20
389.3498558791013
 30
-1.65947215136655
 11
365.8269805649354
 21
393.8498558791016
 31
-1.65947215136655
  0
LINE
  5
13E
330
2
100
AcDbEntity
  8
L-ZISSEN
100
AcDbLine
 10
363.8269805649356
 20
383.5630661480531
 30
-1.65947215136655
 11
363.8269805649356
 21
389.3498558791025
 31
-1.65947215136655
  0
LINE
  5
13F
330
2
100
AcDbEntity
  8
L-ZISSEN
100
AcDbLine
 10
358.0401908338874
 20
389.3498558791013
 30
-1.65947215136655
 11
365.8269805649354
 21
389.3498558791013
 31
-1.65947215136655
  0
LINE
  5
140
330
2
100
AcDbEntity
  8
L-ZISSEN
100
AcDbLine
 10
365.8269805649354
 20
395.8498558791016
 30
-1.65947215136655
 11
365.8269805649354
 21
402.3498558791016
 31
-1.65947215136655
  0
LINE
  5
141
330
2
100
AcDbEntity
  8
L-ZISSEN
100
AcDbLine
 10
363.3269805649354
 20
395.8498558791013
 30
-1.65947215136655
 11
363.3269805649354
 21
393.8498558791014
 31
-1.65947215136655
  0
LINE
  5
142
330
2
100
AcDbEntity
  8
L-TYUSIN
 48
0.5
100
AcDbLine
 10
667.6363513558944
 20
339.0279369685379
 30
-1.216824643738492
 11
667.6363513558944
 21
327.0640796350805
 31
-1.216824643738492
  0
CIRCLE
  5
143
330
2
100
AcDbEntity
  8
L-ZISSEN
100
AcDbCircle
 10
667.6363513558944
 20
333.0460083018092
 30
-1.216824643738492
 40
2.25
  0
LINE
  5
144
330
2
100
AcDbEntity
  8
L-ZISSEN
100
AcDbLine
 10
671.6363513558944
 20
331.0460083018092
 30
-1.216824643738492
 11
671.6363513558944
 21
360.046008301809
 31
-1.216824643738492
  0
CIRCLE
  5
145
330
2
100
AcDbEntity
  8
L-ZISSEN
100
AcDbCircle
 10
626.6363513558943
 20
333.0460083018092
 30
-1.216824643738492
 40
2.25
  0
ARC
  5
146
330
2
100
AcDbEntity
  8
L-ZISSEN
100
AcDbCircle
 10
626.6363513558943
 20
333.0460083018092
 30
-1.216824643738492
 40
3.5
100
AcDbArc
 50
130.0052008848581
 51
49.99479911514183
  0
LINE
  5
147
330
2
100
AcDbEntity
  8
L-ZISSEN
100
AcDbLine
 10
622.6363513558948
 20
360.0460083018092
 30
-1.216824643738492
 11
622.6363513558948
 21
331.0460083018092
 31
-1.216824643738492
  0
LINE
  5
148
330
2
100
AcDbEntity
  8
L-TYUSIN
100
AcDbLine
 10
626.6363513558943
 20
342.4640044784405
 30
-1.216824643738492
 11
626.6363513558943
 21
327.0640796350805
 31
-1.216824643738492
  0
ARC
  5
149
330
2
100
AcDbEntity
  8
L-ZISSEN
100
AcDbCircle
 10
647.1363513558944
 20
345.5460083018092
 30
-1.216824643738492
 40
17.0
100
AcDbArc
 50
180.0
 51
0.0
  0
LINE
  5
14A
330
2
100
AcDbEntity
  8
L-TYUSIN
100
AcDbLine
 10
647.1363513558949
 20
324.3994182034098
 30
0.0
 11
647.1363513558949
 21
408.3498558791022
 31
0.0
  0
LINE
  5
14B
330
2
100
AcDbEntity
  8
L-ZISSEN
  6
CONTINUOUS
 62
     7
100
AcDbLine
 10
613.6363513558949
 20
321.3994182034098
 30
0.0
 11
613.6363513558949
 21
371.3994182034098
 31
0.0
  0
CIRCLE
  5
14C
330
2
100
AcDbEntity
  8
L-ZISSEN
100
AcDbCircle
 10
587.6363513558949
 20
332.86941820341
 30
0.0
 40
17.99999999999982
  0
LINE
  5
14D
330
2
100
AcDbEntity
  8
L-ZISSEN
 48
3.0
100
AcDbLine
 10
577.3903605136569
 20
322.6234273611721
 30
0.0
 11
591.4229081691495
 21
336.6559750166633
 31
0.0
  0
LINE
  5
14E
330
2
100
AcDbEntity
  8
L-TYUSIN
 48
0.5
100
AcDbLine
 10
587.6363513558949
 20
425.8994668574596
 30
0.0
 11
587.6363513558949
 21
311.4563516512867
 31
0.0
  0
LINE
  5
14F
330
2
100
AcDbEntity
  8
L-ZISSEN
100
AcDbLine
 10
551.7063503558943
 20
328.5138082034086
 30
-0.6084123218692464
 11
551.7063503558943
 21
337.2652782034097
 31
-0.6084123218692464
  0
LINE
  5
150
330
2
100
AcDbEntity
  8
L-ZISSEN
100
AcDbLine
 10
551.1063523558946
 20
327.8953882034097
 30
-0.6084123218692464
 11
551.1063523558946
 21
337.9034382034083
 31
-0.6084123218692464
  0
LINE
  5
151
330
2
100
AcDbEntity
  8
L-ZISSEN
100
AcDbLine
 10
551.1063523558946
 20
327.8953882034097
 30
-0.6084123218692464
 11
551.1063523558946
 21
337.9034382034083
 31
-0.6084123218692464
  0
LINE
  5
152
330
2
100
AcDbEntity
  8
L-ZISSEN
100
AcDbLine
 10
546.1063523558946
 20
326.8994182034098
 30
-0.6084123218692464
 11
546.1063523558946
 21
338.8852582034092
 31
-0.6084123218692464
  0
LINE
  5
153
330
2
100
AcDbEntity
  8
L-ZISSEN
100
AcDbLine
 10
538.6063523558946
 20
328.3994182034098
 30
-0.6084123218692464
 11
538.6063523558946
 21
337.1494182034098
 31
-0.6084123218692464
  0
LINE
  5
154
330
2
100
AcDbEntity
  8
L-ZISSEN
100
AcDbLine
 10
529.6063523558946
 20
332.8994182034098
 30
-0.6084123218692464
 11
529.6063523558946
 21
337.1494182034098
 31
-0.6084123218692464
  0
LINE
  5
155
330
2
100
AcDbEntity
  8
L-TYUSIN
100
AcDbLine
 10
534.1063492143016
 20
332.8994182034098
 30
-0.6084123218692464
 11
534.1063492142982
 21
370.687395831029
 31
-0.6084123218692464
  0
LINE
  5
156
330
2
100
AcDbEntity
  8
L-ZISSEN
100
AcDbLine
 10
540.3563523558946
 20
326.8994182034098
 30
-0.6084123218692464
 11
540.3563523558946
 21
347.8994182034098
 31
-0.6084123218692464
  0
LINE
  5
157
330
2
100
AcDbEntity
  8
L-ZISSEN
  6
CONTINUOUS
 62
     7
100
AcDbLine
 10
555.1363513558949
 20
371.3994182034098
 30
0.0
 11
555.1363513558949
 21
321.3994182034098
 31
0.0
  0
LINE
  5
158
330
2
100
AcDbEntity
  8
L-ZISSEN
  6
CONTINUOUS
 62
     7
100
AcDbLine
 10
555.1363513558949
 20
371.3994182034098
 30
0.0
 11
555.1363513558949
 21
321.3994182034098
 31
0.0
  0
LINE
  5
159
330
2
100
AcDbEntity
  8
L-ZISSEN
100
AcDbLine
 10
527.8563523558946
 20
332.8994182034098
 30
-0.6084123218692464
 11
527.8563523558946
 21
347.8994182034098
 31
-0.6084123218692464
  0
LINE
  5
15A
330
2
100
AcDbEntity
  8
L-TYUSIN
 48
0.5
100
AcDbLine
 10
565.5404026395112
 20
332.86941820341
 30
0.0
 11
609.7323000722785
 21
332.86941820341
 31
0.0
  0
LINE
  5
15B
330
2
100
AcDbEntity
  8
L-ZISSEN
100
AcDbLine
 10
717.2980868117149
 20
186.8994182034098
 30
-0.6084123218690252
 11
561.9746159000747
 21
186.8994182034098
 31
-0.6084123218690252
  0
LINE
  5
15C
330
2
100
AcDbEntity
  8
L-ZISSEN
100
AcDbLine
 10
722.6363513558949
 20
320.8994182034098
 30
0.0
 11
601.0795317831593
 21
320.8994182034098
 31
0.0
  0
LINE
  5
15D
330
2
100
AcDbEntity
  8
L-ZISSEN
100
AcDbLine
 10
722.6363513558949
 20
317.3994182034098
 30
0.0
 11
596.8384761105367
 21
317.3994182034098
 31
0.0
  0
LINE
  5
15E
330
2
100
AcDbEntity
  8
L-ZISSEN
100
AcDbLine
 10
559.7407771125758
 20
316.4168706098475
 30
0.0
 11
561.9746159000747
 21
186.8994182034098
 31
-0.6250073688042956
  0
LINE
  5
15F
330
2
100
AcDbEntity
  8
L-ZISSEN
100
AcDbLine
 10
570.6361990510518
 20
316.4168706098475
 30
0.0
 11
572.8700378385488
 21
186.8994182034098
 31
-0.6250073688042956
  0
LINE
  5
160
330
2
100
AcDbEntity
  8
L-ZISSEN
100
AcDbLine
 10
596.6536540927804
 20
178.8994182034098
 30
-0.6084123218690252
 11
582.6190486190112
 21
178.8994182034098
 31
-0.6084123218690252
  0
LINE
  5
161
330
2
100
AcDbEntity
  8
L-ZISSEN
100
AcDbLine
 10
581.6192009238543
 20
179.881965796972
 30
-0.6084123218690252
 11
581.496710836469
 21
186.8994182034098
 31
-0.6084123218690252
  0
ARC
  5
162
330
2
100
AcDbEntity
  8
L-ZISSEN
100
AcDbCircle
 10
582.6190486190112
 20
179.8994182034098
 30
-0.6084123218690252
 40
1.0
100
AcDbArc
 50
181.0000000000017
 51
270.0
  0
LINE
  5
163
330
2
100
AcDbEntity
  8
L-ZISSEN
100
AcDbLine
 10
597.7759918753216
 20
186.8994182034098
 30
-0.6084123218690252
 11
597.6535017879355
 21
179.881965796972
 31
-0.6084123218690252
  0
ARC
  5
164
330
2
100
AcDbEntity
  8
L-ZISSEN
100
AcDbCircle
 10
596.6536540927804
 20
179.8994182034098
 30
-0.6084123218690252
 40
1.0
100
AcDbArc
 50
270.0
 51
358.9999999999982
  0
LINE
  5
165
330
2
100
AcDbEntity
  8
L-ZISSEN
100
AcDbLine
 10
533.8563523558946
 20
326.8994182034098
 30
-0.6084123218692464
 11
540.3563523558946
 21
326.8994182034098
 31
-0.6084123218692464
  0
LINE
  5
166
330
2
100
AcDbEntity
  8
L-ZISSEN
100
AcDbLine
 10
534.1063523558946
 20
328.3994182034098
 30
-0.6084123218692464
 11
538.6063523558946
 21
328.3994182034098
 31
-0.6084123218692464
  0
LINE
  5
167
330
2
100
AcDbEntity
  8
L-TYUSIN
100
AcDbLine
 10
534.1063492143016
 20
332.8994182034098
 30
-0.6084123218692464
 11
557.489761259772
 21
332.8994182034098
 31
-0.6084123218692464
  0
LINE
  5
168
330
2
100
AcDbEntity
  8
L-ZISSEN
100
AcDbLine
 10
533.8563523558946
 20
326.8994182034098
 30
-0.6084123218692464
 11
546.1063523558946
 21
326.8994182034098
 31
-0.6084123218692464
  0
LINE
  5
169
330
2
100
AcDbEntity
  8
L-TYUSIN
100
AcDbLine
 10
569.6363513558967
 20
288.8994182034107
 30
0.0
 11
537.6363513558986
 21
288.8994182034107
 31
0.0
  0
LINE
  5
16A
330
2
100
AcDbEntity
  8
L-ZISSEN
100
AcDbLine
 10
531.1363513558967
 20
302.0994182034091
 30
0.0
 11
559.990689173937
 21
302.0994182034096
 31
0.0
  0
LINE
  5
16B
330
2
100
AcDbEntity
  8
L-ZISSEN
100
AcDbLine
 10
534.1363513558967
 20
279.2528767590592
 30
0.0
 11
560.3817592305836
 21
279.2528767590597
 31
0.0
  0
LINE
  5
16C
330
2
100
AcDbEntity
  8
L-ZISSEN
100
AcDbLine
 10
531.1363513558949
 20
327.551372339732
 30
0.0
 11
531.1363513558949
 21
282.2528767590593
 31
0.0
  0
ARC
  5
16D
330
2
100
AcDbEntity
  8
L-ZISSEN
100
AcDbCircle
 10
534.1363513558967
 20
282.2528767590593
 30
0.0
 40
3.0
100
AcDbArc
 50
180.0
 51
269.9999999999998
  0
ARC
  5
16E
330
2
100
AcDbEntity
  8
L-ZISSEN
100
AcDbCircle
 10
534.1063523558946
 20
332.8994182034098
 30
-0.6084123218692464
 40
4.5
100
AcDbArc
 50
179.9999820000007
 51
269.9999599999959
  0
ARC
  5
16F
330
2
100
AcDbEntity
  8
L-ZISSEN
100
AcDbCircle
 10
533.8563523558946
 20
332.8994182034098
 30
-0.6084123218692464
 40
6.0
100
AcDbArc
 50
179.9999820000007
 51
269.9999599999959
  0
ARC
  5
170
330
2
100
AcDbEntity
  8
L-HASEN
100
AcDbCircle
 10
563.1363513558949
 20
288.8994182034107
 30
0.0
 40
4.0
100
AcDbArc
 50
269.9999999999999
 51
90.0
  0
LINE
  5
171
330
2
100
AcDbEntity
  8
L-TYUSIN
100
AcDbLine
 10
563.1363513558967
 20
295.4364939381807
 30
0.0
 11
563.1363513558967
 21
282.3623424686397
 31
0.0
  0
LINE
  5
172
330
2
100
AcDbEntity
  8
L-TYUSIN
100
AcDbLine
 10
544.1363513558967
 20
295.4364939381807
 30
0.0
 11
544.1363513558967
 21
282.3623424686397
 31
0.0
  0
LINE
  5
173
330
2
100
AcDbEntity
  8
L-TYUSIN
100
AcDbLine
 10
553.6363513558967
 20
302.0264567342605
 30
0.0
 11
553.6363513558967
 21
275.9685019815729
 31
0.0
  0
ARC
  5
174
330
2
100
AcDbEntity
  8
L-ZISSEN
100
AcDbCircle
 10
544.1363513558967
 20
288.8994182034107
 30
0.0
 40
4.0
100
AcDbArc
 50
90.0
 51
269.9999999999943
  0
LINE
  5
175
330
2
100
AcDbEntity
  8
L-ZISSEN
100
AcDbLine
 10
560.282188758239
 20
284.8994182034107
 30
0.0
 11
544.1363513558967
 21
284.8994182034107
 31
0.0
  0
POINT
  5
176
330
2
100
AcDbEntity
  8
L-ZISSEN
100
AcDbPoint
 10
545.1363513558967
 20
284.9974793579162
 30
0.0
  0
LINE
  5
177
330
2
100
AcDbEntity
  8
L-HASEN
100
AcDbLine
 10
560.282188758239
 20
284.8994182034107
 30
0.0
 11
563.1363513558967
 21
284.8994182034107
 31
0.0
  0
LINE
  5
178
330
2
100
AcDbEntity
  8
L-ZISSEN
100
AcDbLine
 10
578.434226601255
 20
317.3994182034098
 30
0.0
 11
556.6363513558949
 21
317.3994182034089
 31
0.0
  0
LINE
  5
179
330
2
100
AcDbEntity
  8
L-ZISSEN
100
AcDbLine
 10
574.1931709286304
 20
320.8994182034098
 30
0.0
 11
556.6363513558949
 21
320.8994182034098
 31
0.0
  0
LINE
  5
17A
330
2
100
AcDbEntity
  8
L-ZISSEN
100
AcDbLine
 10
557.6363513558949
 20
321.3994182034107
 30
0.0
 11
573.7641092876506
 21
321.3994182034107
 31
0.0
  0
LINE
  5
17B
330
2
100
AcDbEntity
  8
L-ZISSEN
  6
CONTINUOUS
 62
     7
100
AcDbLine
 10
555.1363513558949
 20
321.3994182034098
 30
0.0
 11
573.7641092876506
 21
321.3994182034098
 31
0.0
  0
LINE
  5
17C
330
2
100
AcDbEntity
  8
L-ZISSEN
100
AcDbLine
 10
544.1363513558967
 20
292.8994182034107
 30
0.0
 11
560.1425482388144
 21
292.8994182034107
 31
0.0
  0
POINT
  5
17D
330
2
100
AcDbEntity
  8
L-ZISSEN
100
AcDbPoint
 10
549.1363513558967
 20
292.8994182034107
 30
0.0
  0
LINE
  5
17E
330
2
100
AcDbEntity
  8
L-HASEN
100
AcDbLine
 10
560.1425482388144
 20
292.8994182034107
 30
0.0
 11
563.1363513558967
 21
292.8994182034107
 31
0.0
  0
LINE
  5
17F
330
2
100
AcDbEntity
  8
L-ZISSEN
100
AcDbLine
 10
551.7063503558943
 20
328.5137682034096
 30
-0.6084123218692464
 11
555.1363513558949
 21
328.623238203409
 31
-0.6084123218692464
  0
LINE
  5
180
330
2
100
AcDbEntity
  8
L-ZISSEN
100
AcDbLine
 10
551.120385355894
 20
327.8947582034092
 30
-0.6084123218692464
 11
555.1236533558944
 21
328.0225182034087
 31
-0.6084123218692464
  0
LINE
  5
181
330
2
100
AcDbEntity
  8
L-ZISSEN
100
AcDbLine
 10
546.1101433558938
 20
326.8994182034098
 30
-0.6084123218692464
 11
546.3780893558937
 21
325.8994282034095
 31
-0.6084123218692464
  0
LINE
  5
182
330
2
100
AcDbEntity
  8
L-ZISSEN
100
AcDbLine
 10
546.1063523558946
 20
329.3994182034098
 30
-0.6084123218692464
 11
551.1063523558946
 21
329.3994182034098
 31
-0.6084123218692464
  0
LINE
  5
183
330
2
100
AcDbEntity
  8
L-ZISSEN
100
AcDbLine
 10
540.1798433558938
 20
326.8994182034098
 30
-0.6084123218692464
 11
538.6063483558932
 21
328.4729082034086
 31
-0.6084123218692464
  0
LINE
  5
184
330
2
100
AcDbEntity
  8
L-ZISSEN
100
AcDbLine
 10
551.1063503558939
 20
327.89400820341
 30
-0.6084123218692464
 11
551.7063433558937
 21
328.5335682034097
 31
-0.6084123218692464
  0
LINE
  5
185
330
2
100
AcDbEntity
  8
L-ZISSEN
100
AcDbLine
 10
546.3781033558929
 20
325.8994182034098
 30
-0.6084123218692464
 11
550.5715313558935
 21
325.8994182034098
 31
-0.6084123218692464
  0
LINE
  5
186
330
2
100
AcDbEntity
  8
L-ZISSEN
100
AcDbLine
 10
550.5715313558935
 20
325.8994082034082
 30
-0.6084123218692464
 11
551.1063523558946
 21
327.8953882034097
 31
-0.6084123218692464
  0
ARC
  5
187
330
2
100
AcDbEntity
  8
L-ZISSEN
100
AcDbCircle
 10
558.7409294174208
 20
316.3994182034098
 30
0.0
 40
1.0
100
AcDbArc
 50
1.000000000001774
 51
90.0
  0
LINE
  5
188
330
2
100
AcDbEntity
  8
L-ZISSEN
100
AcDbLine
 10
556.6363513558949
 20
320.8994182034098
 30
0.0
 11
556.6363513558949
 21
317.3994182034098
 31
0.0
  0
ARC
  5
189
330
2
100
AcDbEntity
  8
L-ZISSEN
100
AcDbCircle
 10
569.6363513558948
 20
316.3994182034098
 30
0.0
 40
1.0
100
AcDbArc
 50
1.000000000001774
 51
89.99999999999991
  0
LINE
  5
18A
330
2
100
AcDbEntity
  8
L-ZISSEN
100
AcDbLine
 10
635.1535017879355
 20
316.4168706098466
 30
0.0
 11
634.0366707149819
 21
186.8994182034098
 31
-0.6251588037214755
  0
LINE
  5
18B
330
2
100
AcDbEntity
  8
L-ZISSEN
100
AcDbLine
 10
644.1194293840194
 20
316.3906916679111
 30
0.0
 11
645.2360319219614
 21
186.8994182034098
 31
-0.625162282525295
  0
LINE
  5
18C
330
2
100
AcDbEntity
  8
L-ZISSEN
100
AcDbLine
 10
708.636503660738
 20
316.4168706098466
 30
0.0
 11
706.4026648732409
 21
186.8994182034098
 31
-0.6250073688042957
  0
LINE
  5
18D
330
2
100
AcDbEntity
  8
L-ZISSEN
100
AcDbLine
 10
719.5319255992139
 20
316.4168706098466
 30
0.0
 11
717.298086811715
 21
186.8994182034098
 31
-0.6250073688042957
  0
LINE
  5
18E
330
2
100
AcDbEntity
  8
L-ZISSEN
100
AcDbLine
 10
646.6536540927805
 20
181.8994182034098
 30
-0.6084123218690252
 11
632.6190486190112
 21
181.8994182034098
 31
-0.6084123218690252
  0
LINE
  5
18F
330
2
100
AcDbEntity
  8
L-ZISSEN
100
AcDbLine
 10
631.6192009238543
 20
182.881965796972
 30
-0.6084123218690252
 11
631.5490760312544
 21
186.8994182034098
 31
-0.6084123218690252
  0
ARC
  5
190
330
2
100
AcDbEntity
  8
L-ZISSEN
100
AcDbCircle
 10
632.6190486190112
 20
182.8994182034098
 30
-0.6084123218690252
 40
1.0
100
AcDbArc
 50
181.0000000000017
 51
270.0
  0
LINE
  5
191
330
2
100
AcDbEntity
  8
L-ZISSEN
100
AcDbLine
 10
647.7236266805351
 20
186.8994182034098
 30
-0.6084123218690252
 11
647.6535017879355
 21
182.881965796972
 31
-0.6084123218690252
  0
ARC
  5
192
330
2
100
AcDbEntity
  8
L-ZISSEN
100
AcDbCircle
 10
646.6536540927805
 20
182.8994182034098
 30
-0.6084123218690252
 40
1.0
100
AcDbArc
 50
270.0
 51
358.9999999999982
  0
LINE
  5
193
330
2
100
AcDbEntity
  8
L-ZISSEN
100
AcDbLine
 10
682.6190486190112
 20
178.8994182034098
 30
-0.6084123218690252
 11
696.6536540927805
 21
178.8994182034098
 31
-0.6084123218690252
  0
LINE
  5
194
330
2
100
AcDbEntity
  8
L-ZISSEN
100
AcDbLine
 10
681.4967108364704
 20
186.8994182034098
 30
-0.6084123218690252
 11
681.6192009238543
 21
179.881965796972
 31
-0.6084123218690252
  0
ARC
  5
195
330
2
100
AcDbEntity
  8
L-ZISSEN
100
AcDbCircle
 10
682.6190486190112
 20
179.8994182034098
 30
-0.6084123218690252
 40
1.0
100
AcDbArc
 50
181.0000000000017
 51
270.0
  0
LINE
  5
196
330
2
100
AcDbEntity
  8
L-ZISSEN
100
AcDbLine
 10
697.6535017879355
 20
179.881965796972
 30
-0.6084123218690252
 11
697.7759918753206
 21
186.8994182034098
 31
-0.6084123218690252
  0
ARC
  5
197
330
2
100
AcDbEntity
  8
L-ZISSEN
100
AcDbCircle
 10
696.6536540927805
 20
179.8994182034098
 30
-0.6084123218690252
 40
1.0
100
AcDbArc
 50
270.0
 51
358.9999999999982
  0
ARC
  5
198
330
2
100
AcDbEntity
  8
L-ZISSEN
100
AcDbCircle
 10
668.6363513558943
 20
331.0460083018092
 30
-1.216824643738492
 40
3.0
100
AcDbArc
 50
270.0
 51
0.0
  0
LINE
  5
199
330
2
100
AcDbEntity
  8
L-ZISSEN
100
AcDbLine
 10
642.3256302382486
 20
328.0460083018092
 30
-1.216824643738492
 11
625.6363513558948
 21
328.0460083018092
 31
-1.216824643738492
  0
LINE
  5
19A
330
2
100
AcDbEntity
  8
L-ZISSEN
100
AcDbLine
 10
668.6363513558943
 20
328.0460083018092
 30
-1.216824643738492
 11
625.6363513558948
 21
328.0460083018092
 31
-1.216824643738492
  0
ARC
  5
19B
330
2
100
AcDbEntity
  8
L-ZISSEN
100
AcDbCircle
 10
634.1536540927805
 20
316.3994182034098
 30
0.0
 40
1.0
100
AcDbArc
 50
1.000000000001774
 51
90.0
  0
LINE
  5
19C
330
2
100
AcDbEntity
  8
L-ZISSEN
100
AcDbLine
 10
635.8614341382595
 20
321.3994182034098
 30
0.0
 11
635.8614341382595
 21
320.8994182034098
 31
0.0
  0
LINE
  5
19D
330
2
100
AcDbEntity
  8
L-TYUSIN
100
AcDbLine
 10
632.6182800226227
 20
333.0460083018092
 30
-1.216824643738492
 11
620.6544226891654
 21
333.0460083018092
 31
-1.216824643738492
  0
ARC
  5
19E
330
2
100
AcDbEntity
  8
L-ZISSEN
100
AcDbCircle
 10
625.6363513558948
 20
331.0460083018092
 30
-1.216824643738492
 40
3.0
100
AcDbArc
 50
180.0
 51
270.0
  0
ARC
  5
19F
330
2
100
AcDbEntity
  8
L-ZISSEN
100
AcDbCircle
 10
645.1193913070833
 20
316.3994182034098
 30
0.0
 40
1.0
100
AcDbArc
 50
90.0
 51
180.5000000000045
  0
LINE
  5
1A0
330
2
100
AcDbEntity
  8
L-ZISSEN
100
AcDbLine
 10
647.1363513558944
 20
328.5460083018092
 30
-1.216824643738492
 11
642.1363513558944
 21
328.6769379096551
 31
-1.216824643738492
  0
LINE
  5
1A1
330
2
100
AcDbEntity
  8
L-ZISSEN
100
AcDbLine
 10
642.1363513558944
 20
328.6769379096551
 30
-1.216824643738492
 11
642.1363513558944
 21
329.2979314925373
 31
-1.216824643738492
  0
LINE
  5
1A2
330
2
100
AcDbEntity
  8
L-ZISSEN
100
AcDbLine
 10
647.1363513558944
 20
328.5460083018092
 30
-1.216824643738492
 11
652.1363513558943
 21
328.6769379096551
 31
-1.216824643738492
  0
LINE
  5
1A3
330
2
100
AcDbEntity
  8
L-ZISSEN
100
AcDbLine
 10
652.1363513558943
 20
328.6769379096551
 30
-1.216824643738492
 11
652.1363513558943
 21
329.2979314925373
 31
-1.216824643738492
  0
LINE
  5
1A4
330
2
100
AcDbEntity
  8
L-TYUSIN
100
AcDbLine
 10
728.6363513558967
 20
302.0264567342605
 30
0.0
 11
728.6363513558967
 21
275.9685019815729
 31
0.0
  0
LINE
  5
1A5
330
2
100
AcDbEntity
  8
L-TYUSIN
100
AcDbLine
 10
719.1363513558967
 20
295.4364939381807
 30
0.0
 11
719.1363513558967
 21
282.3623424686397
 31
0.0
  0
ARC
  5
1A6
330
2
100
AcDbEntity
  8
L-HASEN
100
AcDbCircle
 10
719.1363513558967
 20
288.8994182034107
 30
0.0
 40
4.0
100
AcDbArc
 50
90.0
 51
269.9999999999943
  0
POINT
  5
1A7
330
2
100
AcDbEntity
  8
L-ZISSEN
100
AcDbPoint
 10
720.1363513558967
 20
284.9974793579162
 30
0.0
  0
LINE
  5
1A8
330
2
100
AcDbEntity
  8
L-ZISSEN
100
AcDbLine
 10
675.4490607252005
 20
321.3994182034098
 30
0.0
 11
675.4490607252005
 21
320.8994182034098
 31
0.0
  0
LINE
  5
1A9
330
2
100
AcDbEntity
  8
L-ZISSEN
100
AcDbLine
 10
727.6600807419431
 20
307.699558979305
 30
0.0
 11
727.6600807419431
 21
317.5995589793046
 31
0.0
  0
POINT
  5
1AA
330
2
100
AcDbEntity
  8
L-ZISSEN
100
AcDbPoint
 10
724.1363513558967
 20
292.8994182034107
 30
0.0
  0
ARC
  5
1AB
330
2
100
AcDbEntity
  8
L-ZISSEN
100
AcDbCircle
 10
709.6363513558949
 20
316.3994182034098
 30
0.0
 40
1.0
100
AcDbArc
 50
89.9999999999998
 51
178.9999999999982
  0
ARC
  5
1AC
330
2
100
AcDbEntity
  8
L-ZISSEN
100
AcDbCircle
 10
720.531773294369
 20
316.3994182034098
 30
0.0
 40
1.0
100
AcDbArc
 50
89.9999999999998
 51
178.9999999999982
  0
LINE
  5
1AD
330
2
100
AcDbEntity
  8
L-ZISSEN
100
AcDbLine
 10
722.6363513558949
 20
320.8994182034098
 30
0.0
 11
722.6363513558949
 21
317.3994182034098
 31
0.0
  0
LINE
  5
1AE
330
2
100
AcDbEntity
  8
L-ZISSEN
100
AcDbLine
 10
724.1600807419431
 20
321.3995589793048
 30
0.0
 11
724.1600807419431
 21
317.5995589793046
 31
0.0
  0
LINE
  5
1AF
330
2
100
AcDbEntity
  8
L-ZISSEN
100
AcDbLine
 10
563.6363513558968
 20
481.3994182034098
 30
-0.6084123218692526
 11
613.6363513558968
 21
481.3994182034098
 31
-0.6084123218692526
  0
LINE
  5
1B0
330
2
100
AcDbEntity
  8
L-ZISSEN
100
AcDbLine
 10
563.6363513558968
 20
496.3994182034098
 30
-0.6084123218692526
 11
613.6363513558968
 21
496.3994182034098
 31
-0.6084123218692526
  0
LINE
  5
1B1
330
2
100
AcDbEntity
  8
L-ZISSEN
100
AcDbLine
 10
591.6363513558949
 20
381.3994182034098
 30
0.0
 11
611.6363513558949
 21
381.3994182034098
 31
0.0
  0
LINE
  5
1B2
330
2
100
AcDbEntity
  8
L-ZISSEN
100
AcDbLine
 10
566.6363513558949
 20
383.3994182034098
 30
0.0
 11
613.6363513558949
 21
383.3994182034098
 31
0.0
  0
LINE
  5
1B3
330
2
100
AcDbEntity
  8
L-ZISSEN
  6
CONTINUOUS
 62
     7
100
AcDbLine
 10
567.1363513558949
 20
386.5994182034096
 30
0.0
 11
608.1363513558949
 21
386.5994182034096
 31
0.0
  0
LINE
  5
1B4
330
2
100
AcDbEntity
  8
L-ZISSEN
100
AcDbLine
 10
591.6363513558949
 20
374.3994182034098
 30
0.0
 11
611.6363513558949
 21
374.3994182034098
 31
0.0
  0
LINE
  5
1B5
330
2
100
AcDbEntity
  8
L-ZISSEN
100
AcDbLine
 10
555.1363513558949
 20
371.3994182034098
 30
0.0
 11
613.6363513558949
 21
371.3994182034098
 31
0.0
  0
LINE
  5
1B6
330
2
100
AcDbEntity
  8
L-ZISSEN
100
AcDbLine
 10
550.6363613559011
 20
426.8472962033968
 30
-0.6084123218692528
 11
548.6403813558996
 21
427.382117203398
 31
-0.6084123218692528
  0
LINE
  5
1B7
330
2
100
AcDbEntity
  8
L-ZISSEN
100
AcDbLine
 10
547.1363513558996
 20
419.3994182033979
 30
-0.6084123218692528
 11
547.1363513558996
 21
427.382117203398
 31
-0.6084123218692528
  0
LINE
  5
1B8
330
2
100
AcDbEntity
  8
L-ZISSEN
100
AcDbLine
 10
536.6363513558995
 20
426.8473322033964
 30
-0.6084123218692528
 11
538.632331355901
 21
427.3821512033967
 31
-0.6084123218692528
  0
LINE
  5
1B9
330
2
100
AcDbEntity
  8
L-ZISSEN
100
AcDbLine
 10
540.1363513558996
 20
419.3994182033979
 30
-0.6084123218692528
 11
540.1363513558996
 21
427.382117203398
 31
-0.6084123218692528
  0
LINE
  5
1BA
330
2
100
AcDbEntity
  8
L-ZISSEN
100
AcDbLine
 10
531.1363513558949
 20
431.3994182033949
 30
0.0
 11
531.1363513558949
 21
352.8994182034098
 31
-0.6084123218692526
  0
LINE
  5
1BB
330
2
100
AcDbEntity
  8
L-TYUSIN
100
AcDbLine
 10
553.6363513558949
 20
451.8799152899091
 30
0.0
 11
553.6363513558949
 21
425.8219605372214
 31
0.0
  0
LINE
  5
1BC
330
2
100
AcDbEntity
  8
L-ZISSEN
100
AcDbLine
 10
563.6363513558949
 20
463.899418203408
 30
0.0000000000000009
 11
563.6363513558985
 21
371.3994182034098
 31
0.0000000000000009
  0
LINE
  5
1BD
330
2
100
AcDbEntity
  8
L-ZISSEN
100
AcDbLine
 10
549.5363533558998
 20
416.3994182033978
 30
-0.6084123218692528
 11
537.7363493558992
 21
416.3994182033978
 31
-0.6084123218692528
  0
LINE
  5
1BE
330
2
100
AcDbEntity
  8
L-ZISSEN
100
AcDbLine
 10
549.5363533558998
 20
414.599408203397
 30
-0.6084123218692528
 11
537.7363493558992
 21
414.599408203397
 31
-0.6084123218692528
  0
LINE
  5
1BF
330
2
100
AcDbEntity
  8
L-ZISSEN
100
AcDbLine
 10
549.6363513558995
 20
419.3994182033979
 30
-0.6084123218692528
 11
537.6505113559002
 21
419.3994182033979
 31
-0.6084123218692528
  0
LINE
  5
1C0
330
2
100
AcDbEntity
  8
L-ZISSEN
100
AcDbLine
 10
537.3090340888999
 20
419.3994182033979
 30
-0.6084123218692528
 11
550.3090340888999
 21
419.3994182033979
 31
-0.6084123218692528
  0
LINE
  5
1C1
330
2
100
AcDbEntity
  8
L-ZISSEN
100
AcDbLine
 10
528.2063503558942
 20
352.8994182034098
 30
-0.6084123218692464
 11
540.0063480727053
 21
352.8994182034098
 31
-0.6084123218692464
  0
LINE
  5
1C2
330
2
100
AcDbEntity
  8
L-ZISSEN
100
AcDbLine
 10
528.2063503558942
 20
351.0994082034089
 30
-0.6084123218692464
 11
540.0063480727053
 21
351.099408203409
 31
-0.6084123218692464
  0
LINE
  5
1C3
330
2
100
AcDbEntity
  8
L-ZISSEN
100
AcDbLine
 10
528.2063503558942
 20
349.8994182034098
 30
-0.6084123218692464
 11
540.0063543558949
 21
349.8994182034098
 31
-0.6084123218692464
  0
LINE
  5
1C4
330
2
100
AcDbEntity
  8
L-ZISSEN
100
AcDbLine
 10
529.6063523558946
 20
337.1494182034098
 30
-0.6084123218692464
 11
538.6063523558946
 21
337.1494182034098
 31
-0.6084123218692464
  0
LINE
  5
1C5
330
2
100
AcDbEntity
  8
L-ZISSEN
100
AcDbLine
 10
533.8563523558946
 20
338.8994182034098
 30
-0.6084123218692464
 11
546.1063523558946
 21
338.8994182034098
 31
-0.6084123218692464
  0
LINE
  5
1C6
330
2
100
AcDbEntity
  8
L-ZISSEN
100
AcDbLine
 10
527.8563523558946
 20
338.8994182034098
 30
-0.6084123218692464
 11
540.3563523558946
 21
338.8994182034098
 31
-0.6084123218692464
  0
LINE
  5
1C7
330
2
100
AcDbEntity
  8
L-ZISSEN
100
AcDbLine
 10
527.8563523558946
 20
347.8994182034098
 30
-0.6084123218692464
 11
540.3563523558946
 21
347.8994182034098
 31
-0.6084123218692464
  0
LINE
  5
1C8
330
2
100
AcDbEntity
  8
L-ZISSEN
100
AcDbLine
 10
551.9543708405554
 20
347.5813987187502
 30
-0.4755249393164434
 11
519.781012355895
 21
379.7547572034108
 31
-0.4755249393164434
  0
LINE
  5
1C9
330
2
100
AcDbEntity
  8
L-TYUSIN
100
AcDbLine
 10
534.1063492142982
 20
370.6873958310288
 30
-0.6084123218692464
 11
543.6363513558996
 21
399.6058332198645
 31
-0.6084123218692534
  0
TEXT
  5
1CA
330
2
100
AcDbEntity
  8
L-ZISSEN
100
AcDbText
 10
491.5002025983252
 20
371.9782230219608
 30
-0.4755249393164434
 40
4.5
  1
Rc3/8
100
AcDbText
  0
LINE
  5
1CB
330
2
100
AcDbEntity
  8
L-ZISSEN
100
AcDbLine
 10
519.781012355895
 20
379.7547572034108
 30
-0.4755249393164434
 11
489.7810123558949
 21
379.7547572034108
 31
-0.4755249393164434
  0
LINE
  5
1CC
330
2
100
AcDbEntity
  8
L-ZISSEN
100
AcDbLine
 10
527.8563373558931
 20
338.9008982034088
 30
-0.6084123218692464
 11
529.6063373558931
 21
337.1508982034088
 31
-0.6084123218692464
  0
LINE
  5
1CD
330
2
100
AcDbEntity
  8
L-ZISSEN
100
AcDbLine
 10
528.2063503558942
 20
351.0994082034089
 30
-0.6084123218692464
 11
528.2063503558942
 21
352.8994182034098
 31
-0.6084123218692464
  0
LINE
  5
1CE
330
2
100
AcDbEntity
  8
L-ZISSEN
100
AcDbLine
 10
528.2063503558942
 20
347.8994182034098
 30
-0.6084123218692464
 11
528.2063503558942
 21
349.8994182034098
 31
-0.6084123218692464
  0
LINE
  5
1CF
330
2
100
AcDbEntity
  8
L-ZISSEN
100
AcDbLine
 10
530.0563493558943
 20
349.8994182034098
 30
-0.6084123218692464
 11
530.0563493558943
 21
351.0994082034089
 31
-0.6084123218692464
  0
TEXT
  5
1D0
330
2
100
AcDbEntity
  8
L-ZISSEN
100
AcDbText
 10
490.2345259399543
 20
380.8278684086991
 30
-0.4755249393164434
 40
4.5
  1
AIR IN
100
AcDbText
  0
LINE
  5
1D1
330
2
100
AcDbEntity
  8
L-ZISSEN
100
AcDbLine
 10
537.7363493558992
 20
416.3994182033978
 30
-0.6084123218692528
 11
537.7363493558992
 21
414.599408203397
 31
-0.6084123218692528
  0
LINE
  5
1D2
330
2
100
AcDbEntity
  8
L-ZISSEN
100
AcDbLine
 10
536.6363513558995
 20
419.6711692033963
 30
-0.6084123218692528
 11
536.6363513558995
 21
426.8472962033968
 31
-0.6084123218692528
  0
LINE
  5
1D3
330
2
100
AcDbEntity
  8
L-ZISSEN
100
AcDbLine
 10
537.6363413558998
 20
419.4032162033976
 30
-0.6084123218692528
 11
536.6363613559011
 21
419.6711642033982
 31
-0.6084123218692528
  0
LINE
  5
1D4
330
2
100
AcDbEntity
  8
L-ZISSEN
100
AcDbLine
 10
536.8391428045209
 20
426.5528767590599
 30
0.0
 11
531.1363513558949
 21
426.5528767590601
 31
0.0
  0
LINE
  5
1D5
330
2
100
AcDbEntity
  8
L-ZISSEN
100
AcDbLine
 10
566.6363513558949
 20
383.3994182034098
 30
0.0
 11
566.6363513558949
 21
371.3994182034098
 31
0.0
  0
LINE
  5
1D6
330
2
100
AcDbEntity
  8
L-ZISSEN
100
AcDbLine
 10
591.6363513558949
 20
381.3994182034098
 30
0.0
 11
591.6363513558949
 21
374.3994182034098
 31
0.0
  0
INSERT
  5
1D7
330
2
100
AcDbEntity
  8
L-ZISSEN
100
AcDbBlockReference
  2
_OPEN
 10
555.1363513558949
 20
344.3994182034108
 30
-0.4755249393164434
 41
4.499999999999996
 42
4.5
 43
4.5
 50
314.9999999999995
  0
LINE
  5
1DE
330
2
100
AcDbEntity
  8
L-ZISSEN
100
AcDbLine
 10
551.1203843558937
 20
337.9040282034097
 30
-0.6084123218692464
 11
555.1236483558946
 21
337.7762682034085
 31
-0.6084123218692464
  0
LINE
  5
1DF
330
2
100
AcDbEntity
  8
L-ZISSEN
100
AcDbLine
 10
551.7063493558939
 20
337.2850282034091
 30
-0.6084123218692464
 11
555.1045103558949
 21
337.1765882034092
 31
-0.6084123218692464
  0
LINE
  5
1E0
330
2
100
AcDbEntity
  8
L-TYUSIN
100
AcDbLine
 10
550.1363513558949
 20
344.3994182034107
 30
-0.4755249393164434
 11
560.1363513558949
 21
344.3994182034109
 31
-0.4755249393164434
  0
LINE
  5
1E1
330
2
100
AcDbEntity
  8
L-ZISSEN
100
AcDbLine
 10
546.1101503558943
 20
338.8994282034095
 30
-0.6084123218692464
 11
546.3780983558949
 21
339.8994082034082
 31
-0.6084123218692464
  0
LINE
  5
1E2
330
2
100
AcDbEntity
  8
L-ZISSEN
100
AcDbLine
 10
546.1063523558946
 20
336.3994182034098
 30
-0.6084123218692464
 11
551.1063523558946
 21
336.3994182034098
 31
-0.6084123218692464
  0
LINE
  5
1E3
330
2
100
AcDbEntity
  8
L-ZISSEN
100
AcDbLine
 10
540.3563483558932
 20
341.0028682034103
 30
-0.6084123218692464
 11
542.4598103558942
 21
338.8994082034082
 31
-0.6084123218692464
  0
LINE
  5
1E4
330
2
100
AcDbEntity
  8
L-ZISSEN
100
AcDbLine
 10
538.6127113558936
 20
337.1494082034082
 30
-0.6084123218692464
 11
540.3563523558946
 21
338.8930582034086
 31
-0.6084123218692464
  0
LINE
  5
1E5
330
2
100
AcDbEntity
  8
L-ZISSEN
100
AcDbLine
 10
546.3781033558929
 20
339.8994182034098
 30
-0.6084123218692464
 11
550.5715313558935
 21
339.8994182034098
 31
-0.6084123218692464
  0
LINE
  5
1E6
330
2
100
AcDbEntity
  8
L-ZISSEN
100
AcDbLine
 10
551.1063263558948
 20
337.9047982034085
 30
-0.6084123218692464
 11
551.7063213558936
 21
337.2652582034102
 31
-0.6084123218692464
  0
LINE
  5
1E7
330
2
100
AcDbEntity
  8
L-ZISSEN
100
AcDbLine
 10
550.5715673558929
 20
339.8994182034098
 30
-0.6084123218692464
 11
551.1063863558933
 21
337.9034382034083
 31
-0.6084123218692464
  0
LINE
  5
1E8
330
2
100
AcDbEntity
  8
L-ZISSEN
100
AcDbLine
 10
540.0063480727053
 20
351.0994082034089
 30
-0.6084123218692464
 11
540.0063480727053
 21
352.8994182034098
 31
-0.6084123218692464
  0
LINE
  5
1E9
330
2
100
AcDbEntity
  8
L-ZISSEN
100
AcDbLine
 10
538.1563553558931
 20
349.8994182034098
 30
-0.6084123218692464
 11
538.1563553558931
 21
351.0994082034089
 31
-0.6084123218692464
  0
LINE
  5
1EA
330
2
100
AcDbEntity
  8
L-ZISSEN
100
AcDbLine
 10
540.0063543558949
 20
347.8994182034098
 30
-0.6084123218692464
 11
540.0063543558949
 21
349.8994182034098
 31
-0.6084123218692464
  0
LINE
  5
1EB
330
2
100
AcDbEntity
  8
L-ZISSEN
100
AcDbLine
 10
539.6363513558996
 20
414.599408203397
 30
-0.6084123218692528
 11
539.6363513558996
 21
385.2033910311169
 31
-0.6084123218692528
  0
LINE
  5
1EC
330
2
100
AcDbEntity
  8
L-ZISSEN
100
AcDbLine
 10
547.6363513558996
 20
414.599408203397
 30
-0.6084123218692528
 11
547.6363513558996
 21
385.2033910311169
 31
-0.6084123218692528
  0
LINE
  5
1ED
330
2
100
AcDbEntity
  8
L-ZISSEN
  6
CONTINUOUS
 62
     7
100
AcDbLine
 10
567.1363513558949
 20
383.3994182034098
 30
0.0
 11
567.1363513558949
 21
386.5994182034096
 31
0.0
  0
LINE
  5
1EE
330
2
100
AcDbEntity
  8
L-ZISSEN
100
AcDbLine
 10
563.6363513558968
 20
381.3994182034098
 30
0.0
 11
566.6363513558949
 21
381.3994182034098
 31
0.0
  0
LINE
  5
1EF
330
2
100
AcDbEntity
  8
L-ZISSEN
100
AcDbLine
 10
549.5363533558998
 20
416.3994182033978
 30
-0.6084123218692528
 11
549.5363533558998
 21
414.599408203397
 31
-0.6084123218692528
  0
LINE
  5
1F0
330
2
100
AcDbEntity
  8
L-ZISSEN
100
AcDbLine
 10
539.6363513558996
 20
414.599408203397
 30
-0.6084123218692528
 11
547.6363513558996
 21
414.599408203397
 31
-0.6084123218692528
  0
LINE
  5
1F1
330
2
100
AcDbEntity
  8
L-ZISSEN
100
AcDbLine
 10
538.8090340888999
 20
416.3994182033979
 30
-0.8517772506169459
 11
538.8090340888999
 21
419.3994182033979
 31
-0.8517772506169459
  0
LINE
  5
1F2
330
2
100
AcDbEntity
  8
L-ZISSEN
100
AcDbLine
 10
548.4636686228992
 20
416.3994182033978
 30
-0.8517772506169459
 11
548.4636686228992
 21
419.3994182033979
 31
-0.8517772506169459
  0
LINE
  5
1F3
330
2
100
AcDbEntity
  8
L-ZISSEN
  6
CONTINUOUS
 62
     7
100
AcDbLine
 10
538.8090340888999
 20
417.8994182033979
 30
-0.6084123218692528
 11
548.4636686228992
 21
417.899418203398
 31
-0.6084123218692528
  0
LINE
  5
1F4
330
2
100
AcDbEntity
  8
L-ZISSEN
100
AcDbLine
 10
550.6363513558995
 20
419.6711692033963
 30
-0.6084123218692528
 11
550.6363513558995
 21
426.8472962033968
 31
-0.6084123218692528
  0
LINE
  5
1F5
330
2
100
AcDbEntity
  8
L-ZISSEN
100
AcDbLine
 10
549.6363513558995
 20
419.403209203397
 30
-0.6084123218692528
 11
550.6363413558998
 21
419.671155203397
 31
-0.6084123218692528
  0
LINE
  5
1F6
330
2
100
AcDbEntity
  8
L-ZISSEN
  6
CONTINUOUS
 62
     7
100
AcDbLine
 10
597.6363513558949
 20
386.5994182034096
 30
0.0
 11
597.6363513558949
 21
409.39946685746
 31
0.0
  0
LINE
  5
1F7
330
2
100
AcDbEntity
  8
L-ZISSEN
  6
CONTINUOUS
 62
     7
100
AcDbLine
 10
577.6363513558949
 20
386.5994182034096
 30
0.0
 11
577.6363513558949
 21
409.39946685746
 31
0.0
  0
LINE
  5
1F8
330
2
100
AcDbEntity
  8
L-ZISSEN
  6
CONTINUOUS
 62
     7
100
AcDbLine
 10
595.6363513558949
 20
411.39946685746
 30
0.0
 11
579.6363473539417
 21
411.39946685746
 31
0.0
  0
LINE
  5
1F9
330
2
100
AcDbEntity
  8
L-ZISSEN
100
AcDbLine
 10
583.6363513558949
 20
411.89946685746
 30
-0.0000000000000009
 11
591.6363513558949
 21
411.89946685746
 31
-0.0000000000000009
  0
LINE
  5
1FA
330
2
100
AcDbEntity
  8
L-ZISSEN
100
AcDbLine
 10
591.3363513558938
 20
423.89946685746
 30
-0.0000000000000009
 11
583.9363513558942
 21
423.89946685746
 31
-0.0000000000000009
  0
LINE
  5
1FB
330
2
100
AcDbEntity
  8
L-ZISSEN
100
AcDbLine
 10
583.6363513558949
 20
411.39946685746
 30
-0.0000000000000009
 11
583.6363513558949
 21
423.5994668574599
 31
-0.0000000000000009
  0
ARC
  5
1FC
330
2
100
AcDbEntity
  8
L-ZISSEN
  6
CONTINUOUS
 62
     7
100
AcDbCircle
 10
579.6363513558949
 20
409.39946685746
 30
0.0
 40
2.0
100
AcDbArc
 50
90.00000000000033
 51
180.0
  0
LINE
  5
1FD
330
2
100
AcDbEntity
  8
L-ZISSEN
100
AcDbLine
 10
583.6363513558949
 20
423.5994668574599
 30
-0.0000000000000009
 11
583.9363513558942
 21
423.89946685746
 31
-0.0000000000000009
  0
LINE
  5
1FE
330
2
100
AcDbEntity
  8
L-ZISSEN
100
AcDbLine
 10
591.6363513558949
 20
411.39946685746
 30
-0.0000000000000009
 11
591.6363513558949
 21
423.5994668574599
 31
-0.0000000000000009
  0
ARC
  5
1FF
330
2
100
AcDbEntity
  8
L-ZISSEN
100
AcDbCircle
 10
595.6363513558949
 20
409.39946685746
 30
0.0
 40
2.0
100
AcDbArc
 50
0.0
 51
90.00000000000035
  0
LINE
  5
200
330
2
100
AcDbEntity
  8
L-ZISSEN
100
AcDbLine
 10
591.3363513558938
 20
423.89946685746
 30
-0.0000000000000009
 11
591.6363513558949
 21
423.5994668574599
 31
-0.0000000000000009
  0
LINE
  5
201
330
2
100
AcDbEntity
  8
L-TYUSIN
100
AcDbLine
 10
569.6363513558948
 20
438.8994182034107
 30
0.0
 11
537.6363513558967
 21
438.8994182034107
 31
0.0
  0
LINE
  5
202
330
2
100
AcDbEntity
  8
L-ZISSEN
100
AcDbLine
 10
523.6363513559012
 20
431.399418203395
 30
0.0
 11
563.1363513558989
 21
431.3994182033949
 31
0.0
  0
LINE
  5
203
330
2
100
AcDbEntity
  8
L-TYUSIN
100
AcDbLine
 10
597.6363513558967
 20
465.7494182034092
 30
0.0
 11
597.6363513558967
 21
480.0494182034094
 31
0.0
  0
LINE
  5
204
330
2
100
AcDbEntity
  8
L-HASEN
100
AcDbLine
 10
563.1363513558949
 20
434.8994182034107
 30
0.0
 11
544.1363513558949
 21
434.8994182034107
 31
0.0
  0
LINE
  5
205
330
2
100
AcDbEntity
  8
L-HASEN
100
AcDbLine
 10
544.1363513558949
 20
442.8994182034107
 30
0.0
 11
563.1363513558949
 21
442.8994182034107
 31
0.0
  0
ARC
  5
206
330
2
100
AcDbEntity
  8
L-HASEN
100
AcDbCircle
 10
544.1363513558949
 20
438.8994182034107
 30
0.0
 40
4.0
100
AcDbArc
 50
90.0
 51
269.9999999999943
  0
LINE
  5
207
330
2
100
AcDbEntity
  8
L-TYUSIN
100
AcDbLine
 10
544.1363513558949
 20
445.9364939381807
 30
0.0
 11
544.1363513558949
 21
432.8623424686397
 31
0.0
  0
LINE
  5
208
330
2
100
AcDbEntity
  8
L-ZISSEN
100
AcDbLine
 10
548.6403813558996
 20
427.382117203398
 30
-0.6084123218692528
 11
538.632331355901
 21
427.382117203398
 31
-0.6084123218692528
  0
LINE
  5
209
330
2
100
AcDbEntity
  8
L-ZISSEN
100
AcDbLine
 10
548.6403813558996
 20
427.382117203398
 30
-0.6084123218692528
 11
538.632331355901
 21
427.382117203398
 31
-0.6084123218692528
  0
LINE
  5
20A
330
2
100
AcDbEntity
  8
L-ZISSEN
100
AcDbLine
 10
548.0219613559007
 20
427.9821152033977
 30
-0.6084123218692528
 11
539.2704913558997
 21
427.9821152033977
 31
-0.6084123218692528
  0
LINE
  5
20B
330
2
100
AcDbEntity
  8
L-ZISSEN
100
AcDbLine
 10
538.6317413558996
 20
427.3961492033971
 30
-0.6084123218692528
 11
538.7595013559008
 21
431.399413203398
 31
-0.6084123218692528
  0
LINE
  5
20C
330
2
100
AcDbEntity
  8
L-ZISSEN
100
AcDbLine
 10
539.2507413559002
 20
427.9821142033974
 30
-0.6084123218692528
 11
539.3591813559002
 21
431.3802752033983
 31
-0.6084123218692528
  0
LINE
  5
20D
330
2
100
AcDbEntity
  8
L-ZISSEN
100
AcDbLine
 10
538.6309713559009
 20
427.3820912033983
 30
-0.6084123218692528
 11
539.2705113558991
 21
427.982086203397
 31
-0.6084123218692528
  0
LINE
  5
20E
330
2
100
AcDbEntity
  8
L-ZISSEN
100
AcDbLine
 10
548.6417613558993
 20
427.3821152033973
 30
-0.6084123218692528
 11
548.0022013558997
 21
427.9821082033971
 31
-0.6084123218692528
  0
LINE
  5
20F
330
2
100
AcDbEntity
  8
L-ZISSEN
100
AcDbLine
 10
548.6410113559001
 20
427.3961502033975
 30
-0.6084123218692528
 11
548.5132513559006
 21
431.3994182033979
 31
-0.6084123218692528
  0
LINE
  5
210
330
2
100
AcDbEntity
  8
L-ZISSEN
100
AcDbLine
 10
548.0220013558997
 20
427.9821152033977
 30
-0.6084123218692528
 11
547.9125313559003
 21
431.4121162033983
 31
-0.6084123218692528
  0
ARC
  5
211
330
2
100
AcDbEntity
  8
L-HASEN
100
AcDbCircle
 10
563.136351355893
 20
438.8994182034107
 30
0.0
 40
4.0
100
AcDbArc
 50
269.9999999999999
 51
90.0
  0
LINE
  5
212
330
2
100
AcDbEntity
  8
L-TYUSIN
100
AcDbLine
 10
563.1363513558949
 20
445.4364939381807
 30
0.0
 11
563.1363513558949
 21
432.3623424686397
 31
0.0
  0
LINE
  5
213
330
2
100
AcDbEntity
  8
L-TYUSIN
100
AcDbLine
 10
563.1363513558949
 20
445.7899524938293
 30
0.0
 11
563.1363513558949
 21
432.7158010242892
 31
0.0
  0
CIRCLE
  5
214
330
2
100
AcDbEntity
  8
L-ZISSEN
100
AcDbCircle
 10
597.6363513558967
 20
469.3994182034098
 30
0.0
 40
1.649999999999999
  0
CIRCLE
  5
215
330
2
100
AcDbEntity
  8
L-ZISSEN
100
AcDbCircle
 10
597.6363513558967
 20
476.3994182034098
 30
0.0
 40
1.649999999999999
  0
LINE
  5
216
330
2
100
AcDbEntity
  8
L-ZISSEN
100
AcDbLine
 10
637.1911878466674
 20
403.3498558791023
 30
0.0
 11
640.2995583319366
 21
462.661097984625
 31
0.0
  0
LINE
  5
217
330
2
100
AcDbEntity
  8
L-ZISSEN
100
AcDbLine
 10
613.6363513558968
 20
371.3994182034098
 30
0.0
 11
613.6363513558968
 21
496.3994182034094
 31
0.0
  0
LINE
  5
218
330
2
100
AcDbEntity
  8
L-TYUSIN
100
AcDbLine
 10
728.6363513558967
 20
452.0264567342605
 30
0.0
 11
728.6363513558967
 21
425.9685019815728
 31
0.0
  0
LINE
  5
219
330
2
100
AcDbEntity
  8
L-TYUSIN
100
AcDbLine
 10
674.6363513558949
 20
345.3994182034098
 30
0.0
 11
619.6363513558949
 21
345.3994182034098
 31
0.0
  0
ARC
  5
21A
330
2
100
AcDbEntity
  8
L-ZISSEN
100
AcDbCircle
 10
668.6363513558943
 20
360.046008301809
 30
-1.216824643738492
 40
3.0
100
AcDbArc
 50
0.0
 51
90.0
  0
ARC
  5
21B
330
2
100
AcDbEntity
  8
L-ZISSEN
100
AcDbCircle
 10
633.5648325868186
 20
375.189255570448
 30
-1.216824643738492
 40
12.0
100
AcDbArc
 50
8.935183764346577
 51
28.26080897926152
  0
LINE
  5
21C
330
2
100
AcDbEntity
  8
L-ZISSEN
100
AcDbLine
 10
629.1779393375604
 20
393.601009806948
 30
-1.216824643738492
 11
643.5146356969783
 21
380.038425476365
 31
-1.216824643738492
  0
ARC
  5
21D
330
2
100
AcDbEntity
  8
L-ZISSEN
100
AcDbCircle
 10
656.5648325868186
 20
374.903717715887
 30
-1.216824643738492
 40
10.0
100
AcDbArc
 50
139.9954954077608
 51
167.5883313177649
  0
ARC
  5
21E
330
2
100
AcDbEntity
  8
L-ZISSEN
100
AcDbCircle
 10
657.5648325868186
 20
374.3001331336008
 30
-1.216824643738492
 40
12.0
100
AcDbArc
 50
138.9006223746737
 51
166.7376278191416
  0
LINE
  5
21F
330
2
100
AcDbEntity
  8
L-ZISSEN
100
AcDbLine
 10
630.1363513558939
 20
360.8744354265554
 30
-1.216824643738492
 11
630.1363513558944
 21
388.8498558791022
 31
-1.216824643738492
  0
LINE
  5
220
330
2
100
AcDbEntity
  8
L-ZISSEN
100
AcDbLine
 10
664.1363513558943
 20
345.5460083018092
 30
-1.216824643738492
 11
664.1363513558943
 21
388.8498558791025
 31
-1.216824643738492
  0
LINE
  5
221
330
2
100
AcDbEntity
  8
L-ZISSEN
100
AcDbLine
 10
611.6363513558949
 20
381.3994182034098
 30
0.0
 11
611.6363513558949
 21
374.3994182034098
 31
0.0
  0
LINE
  5
222
330
2
100
AcDbEntity
  8
L-ZISSEN
100
AcDbLine
 10
628.2723903252152
 20
348.7779991331524
 30
-1.216824643738492
 11
641.6359003986843
 21
362.1415092066215
 31
-1.216824643738492
  0
LINE
  5
223
330
2
100
AcDbEntity
  8
L-ZISSEN
100
AcDbLine
 10
629.1008174499615
 20
346.7779991331524
 30
-1.216824643738492
 11
642.4643275234301
 21
360.1415092066215
 31
-1.216824643738492
  0
ARC
  5
224
330
2
100
AcDbEntity
  8
L-ZISSEN
100
AcDbCircle
 10
626.6363513558943
 20
358.0460083018092
 30
-1.216824643738492
 40
4.5
100
AcDbArc
 50
321.0575587310224
 51
38.94244126897754
  0
LINE
  5
225
330
2
100
AcDbEntity
  8
L-TYUSIN
 48
0.5
100
AcDbLine
 10
626.6363513558943
 20
364.0279369685379
 30
-1.216824643738492
 11
626.6363513558943
 21
352.0640796350805
 31
-1.216824643738492
  0
CIRCLE
  5
226
330
2
100
AcDbEntity
  8
L-ZISSEN
100
AcDbCircle
 10
626.6363513558943
 20
358.0460083018092
 30
-1.216824643738492
 40
2.25
  0
ARC
  5
227
330
2
100
AcDbEntity
  8
L-ZISSEN
100
AcDbCircle
 10
632.6363513558943
 20
343.2424652272197
 30
-1.216824643738492
 40
5.0
100
AcDbArc
 50
134.999999999993
 51
180.0
  0
ARC
  5
228
330
2
100
AcDbEntity
  8
L-ZISSEN
100
AcDbCircle
 10
634.6363513558939
 20
342.4140381024735
 30
-1.216824643738492
 40
9.0
100
AcDbArc
 50
134.999999999993
 51
180.0
  0
LINE
  5
229
330
2
100
AcDbEntity
  8
L-ZISSEN
100
AcDbLine
 10
630.1363513558944
 20
345.5460083018092
 30
-1.216824643738492
 11
630.1363513558944
 21
347.8135330390853
 31
-1.216824643738492
  0
LINE
  5
22A
330
2
100
AcDbEntity
  8
L-ZISSEN
100
AcDbLine
 10
630.1363513558944
 20
345.5460083018092
 30
-1.216824643738492
 11
630.1363513558944
 21
355.3431895923058
 31
-1.216824643738492
  0
LINE
  5
22B
330
2
100
AcDbEntity
  8
L-ZISSEN
100
AcDbLine
 10
628.8863513558943
 20
341.0460083018092
 30
-1.216824643738492
 11
624.3863513558943
 21
341.0460083018092
 31
-1.216824643738492
  0
LINE
  5
22C
330
2
100
AcDbEntity
  8
L-ZISSEN
100
AcDbLine
 10
628.8863513558943
 20
336.0460083018092
 30
-1.216824643738492
 11
624.3863513558943
 21
336.0460083018092
 31
-1.216824643738492
  0
LINE
  5
22D
330
2
100
AcDbEntity
  8
L-ZISSEN
100
AcDbLine
 10
624.3863513558943
 20
335.7269596255
 30
-1.216824643738492
 11
624.3863513558943
 21
341.0460083018092
 31
-1.216824643738492
  0
LINE
  5
22E
330
2
100
AcDbEntity
  8
L-ZISSEN
100
AcDbLine
 10
627.6363513558943
 20
341.0460083018092
 30
-1.216824643738492
 11
627.6363513558943
 21
343.2424652272197
 31
-1.216824643738492
  0
LINE
  5
22F
330
2
100
AcDbEntity
  8
L-ZISSEN
100
AcDbLine
 10
625.6363513558938
 20
341.0460083018092
 30
-1.216824643738492
 11
625.6363513558938
 21
342.4140381024735
 31
-1.216824643738492
  0
LINE
  5
230
330
2
100
AcDbEntity
  8
L-ZISSEN
100
AcDbLine
 10
626.6363513558943
 20
341.0460083018092
 30
-1.216824643738492
 11
627.6363513558943
 21
341.0460083018092
 31
-1.216824643738492
  0
LINE
  5
231
330
2
100
AcDbEntity
  8
L-ZISSEN
100
AcDbLine
 10
628.8863513558943
 20
335.7269596255
 30
-1.216824643738492
 11
628.8863513558943
 21
341.0460083018092
 31
-1.216824643738492
  0
LINE
  5
232
330
2
100
AcDbEntity
  8
L-ZISSEN
  6
CONTINUOUS
 62
     7
100
AcDbLine
 10
630.1363513558949
 20
363.3994182034098
 30
0.0
 11
613.6363513558949
 21
363.3994182034098
 31
0.0
  0
LINE
  5
233
330
2
100
AcDbEntity
  8
L-ZISSEN
  6
CONTINUOUS
 62
     7
100
AcDbLine
 10
630.1363513558949
 20
366.3994182034098
 30
0.0
 11
613.6363513558949
 21
366.3994182034098
 31
0.0
  0
ARC
  5
234
330
2
100
AcDbEntity
  8
L-ZISSEN
  6
CONTINUOUS
 62
     7
100
AcDbCircle
 10
615.6363513558949
 20
368.3994182034098
 30
0.0
 40
2.0
100
AcDbArc
 50
180.0
 51
270.0
  0
LINE
  5
235
330
2
100
AcDbEntity
  8
L-ZISSEN
100
AcDbLine
 10
630.1363513558944
 20
363.0460083018092
 30
-1.216824643738492
 11
625.6363513558948
 21
363.0460083018092
 31
-1.216824643738492
  0
LINE
  5
236
330
2
100
AcDbEntity
  8
L-TYUSIN
 48
0.5
100
AcDbLine
 10
621.1544226891659
 20
358.0460083018092
 30
-1.216824643738492
 11
633.5641428936018
 21
358.0460083018092
 31
-1.216824643738492
  0
ARC
  5
237
330
2
100
AcDbEntity
  8
L-ZISSEN
100
AcDbCircle
 10
625.6363513558948
 20
360.0460083018092
 30
-1.216824643738492
 40
3.0
100
AcDbArc
 50
90.0
 51
180.0
  0
ARC
  5
238
330
2
100
AcDbEntity
  8
L-ZISSEN
100
AcDbCircle
 10
634.5648325868186
 20
369.2125770184868
 30
-1.216824643738492
 40
10.0
100
AcDbArc
 50
314.999999999993
 51
0.0
  0
ARC
  5
239
330
2
100
AcDbEntity
  8
L-ZISSEN
100
AcDbCircle
 10
632.5648325868186
 20
370.041004143233
 30
-1.216824643738492
 40
14.0
100
AcDbArc
 50
314.999999999993
 51
0.0
  0
LINE
  5
23A
330
2
100
AcDbEntity
  8
L-ZISSEN
100
AcDbLine
 10
643.8240548274824
 20
377.0530600037354
 30
-1.216824643738492
 11
647.4008947678165
 21
377.0530600037354
 31
-1.216824643738492
  0
LINE
  5
23B
330
2
100
AcDbEntity
  8
L-ZISSEN
100
AcDbLine
 10
647.4008947678165
 20
372.0530600037355
 30
-1.216824643738492
 11
643.8240548274824
 21
372.0530600037355
 31
-1.216824643738492
  0
LINE
  5
23C
330
2
100
AcDbEntity
  8
L-ZISSEN
100
AcDbLine
 10
643.8240548274824
 20
372.0530600037352
 30
-1.216824643738492
 11
643.8240548274824
 21
377.0530600037352
 31
-1.216824643738492
  0
LINE
  5
23D
330
2
100
AcDbEntity
  8
L-ZISSEN
100
AcDbLine
 10
644.5648325868186
 20
372.0530600037355
 30
-1.216824643738492
 11
644.5648325868186
 21
369.2125770184868
 31
-1.216824643738492
  0
ARC
  5
23E
330
2
100
AcDbEntity
  8
L-ZISSEN
100
AcDbCircle
 10
634.5648325868186
 20
375.577369066794
 30
-1.216824643738492
 40
10.0
100
AcDbArc
 50
8.486078155632641
 51
26.49409907586739
  0
LINE
  5
23F
330
2
100
AcDbEntity
  8
L-ZISSEN
100
AcDbLine
 10
647.4008947678165
 20
377.0530600037354
 30
-1.216824643738492
 11
647.4008947678165
 21
372.0530600037355
 31
-1.216824643738492
  0
LINE
  5
240
330
2
100
AcDbEntity
  8
L-ZISSEN
100
AcDbLine
 10
646.5648325868186
 20
372.0530600037355
 30
-1.216824643738492
 11
646.5648325868186
 21
370.041004143233
 31
-1.216824643738492
  0
LINE
  5
241
330
2
100
AcDbEntity
  8
L-ZISSEN
100
AcDbLine
 10
668.6363513558943
 20
363.046008301809
 30
-1.216824643738492
 11
664.1363513558943
 21
363.046008301809
 31
-1.216824643738492
  0
LINE
  5
242
330
2
100
AcDbEntity
  8
L-ZISSEN
100
AcDbLine
 10
629.8863513558943
 20
394.3498558791022
 30
-1.216824643738492
 11
644.1344497431913
 21
380.8710856601037
 31
-1.216824643738492
  0
LINE
  5
243
330
2
100
AcDbEntity
  8
L-ZISSEN
100
AcDbLine
 10
629.6363513558944
 20
403.3498558791024
 30
-1.216824643738492
 11
664.6363513558943
 21
403.3498558791023
 31
-1.216824643738492
  0
LINE
  5
244
330
2
100
AcDbEntity
  8
L-ZISSEN
100
AcDbLine
 10
630.1363513558944
 20
388.8498558791025
 30
-1.216824643738492
 11
664.1363513558943
 21
388.8498558791025
 31
-1.216824643738492
  0
LINE
  5
245
330
2
100
AcDbEntity
  8
L-ZISSEN
100
AcDbLine
 10
628.1363513558943
 20
395.3498558791022
 30
-1.216824643738492
 11
666.1363513558943
 21
395.3498558791022
 31
-1.216824643738492
  0
LINE
  5
246
330
2
100
AcDbEntity
  8
L-ZISSEN
100
AcDbLine
 10
630.9434283856083
 20
393.3498558791022
 30
-1.216824643738492
 11
663.0818574569174
 21
393.3498558791022
 31
-1.216824643738492
  0
LINE
  5
247
330
2
100
AcDbEntity
  8
L-ZISSEN
100
AcDbLine
 10
635.5290439301796
 20
388.8498558791022
 30
-1.216824643738492
 11
657.2116349115225
 21
388.8498558791022
 31
-1.216824643738492
  0
LINE
  5
248
330
2
100
AcDbEntity
  8
L-ZISSEN
100
AcDbLine
 10
613.6363513558968
 20
426.5528767590589
 30
0.0
 11
638.4148865553156
 21
426.5528767590589
 31
0.0
  0
LINE
  5
249
330
2
100
AcDbEntity
  8
L-ZISSEN
  6
CONTINUOUS
 62
     7
100
AcDbLine
 10
608.1363513558949
 20
383.3994182034098
 30
0.0
 11
608.1363513558949
 21
386.5994182034096
 31
0.0
  0
LINE
  5
24A
330
2
100
AcDbEntity
  8
L-ZISSEN
100
AcDbLine
 10
628.1363513558943
 20
388.8498558791022
 30
-1.216824643738492
 11
628.1363513558943
 21
393.3498558791025
 31
-1.216824643738492
  0
LINE
  5
24B
330
2
100
AcDbEntity
  8
L-ZISSEN
100
AcDbLine
 10
628.1363513558943
 20
388.8498558791022
 30
-1.216824643738492
 11
634.0290439301792
 21
388.8498558791022
 31
-1.216824643738492
  0
LINE
  5
24C
330
2
100
AcDbEntity
  8
L-ZISSEN
100
AcDbLine
 10
628.1363513558943
 20
393.3498558791022
 30
-1.216824643738492
 11
629.4434283856084
 21
393.3498558791022
 31
-1.216824643738492
  0
ARC
  5
24D
330
2
100
AcDbEntity
  8
L-ZISSEN
100
AcDbCircle
 10
629.6363513558944
 20
401.8498558791025
 30
-1.216824643738492
 40
1.5
100
AcDbArc
 50
90.0
 51
180.0
  0
LINE
  5
24E
330
2
100
AcDbEntity
  8
L-ZISSEN
100
AcDbLine
 10
628.1363513558943
 20
395.3498558791025
 30
-1.216824643738492
 11
628.1363513558943
 21
401.8498558791025
 31
-1.216824643738492
  0
ARC
  5
24F
330
2
100
AcDbEntity
  8
L-ZISSEN
100
AcDbCircle
 10
629.1363513558943
 20
394.3498558791022
 30
-1.216824643738492
 40
0.75
100
AcDbArc
 50
0.0000000000065138
 51
273.1787181651258
  0
LINE
  5
250
330
2
100
AcDbEntity
  8
L-ZISSEN
100
AcDbLine
 10
630.6363513558943
 20
395.3498558791022
 30
-1.216824643738492
 11
630.6363513558943
 21
393.6403522394264
 31
-1.216824643738492
  0
LINE
  5
251
330
2
100
AcDbEntity
  8
L-ZISSEN
100
AcDbLine
 10
664.9415564469822
 20
393.6255942250973
 30
-1.216824643738492
 11
648.904893538703
 21
381.3321960567666
 31
-1.216824643738492
  0
LINE
  5
252
330
2
100
AcDbEntity
  8
L-ZISSEN
100
AcDbLine
 10
664.3863513558943
 20
394.3498558791022
 30
-1.216824643738492
 11
648.521986190969
 21
382.1885378557908
 31
-1.216824643738492
  0
LINE
  5
253
330
2
100
AcDbEntity
  8
L-ZISSEN
100
AcDbLine
 10
666.1363513558943
 20
388.8498558791022
 30
-1.216824643738492
 11
666.1363513558943
 21
393.3498558791022
 31
-1.216824643738492
  0
LINE
  5
254
330
2
100
AcDbEntity
  8
L-ZISSEN
100
AcDbLine
 10
658.7116349115225
 20
388.8498558791022
 30
-1.216824643738492
 11
666.1363513558943
 21
388.8498558791022
 31
-1.216824643738492
  0
LINE
  5
255
330
2
100
AcDbEntity
  8
L-ZISSEN
100
AcDbLine
 10
666.1363513558943
 20
395.3498558791022
 30
-1.216824643738492
 11
666.1363513558943
 21
401.8498558791022
 31
-1.216824643738492
  0
ARC
  5
256
330
2
100
AcDbEntity
  8
L-ZISSEN
100
AcDbCircle
 10
665.1363513558943
 20
394.3498558791022
 30
-1.216824643738492
 40
0.75
100
AcDbArc
 50
254.9461630706212
 51
180.0
  0
LINE
  5
257
330
2
100
AcDbEntity
  8
L-ZISSEN
100
AcDbLine
 10
664.5818574569174
 20
393.3498558791022
 30
-1.216824643738492
 11
666.1363513558943
 21
393.3498558791022
 31
-1.216824643738492
  0
LINE
  5
258
330
2
100
AcDbEntity
  8
L-ZISSEN
100
AcDbLine
 10
664.5818574569179
 20
393.3498558791022
 30
-1.216824643738492
 11
666.1363513558943
 21
393.3498558791022
 31
-1.216824643738492
  0
LINE
  5
259
330
2
100
AcDbEntity
  8
L-ZISSEN
100
AcDbLine
 10
663.6363513558944
 20
395.3498558791022
 30
-1.216824643738492
 11
663.6363513558944
 21
393.7749202656907
 31
-1.216824643738492
  0
ARC
  5
25A
330
2
100
AcDbEntity
  8
L-ZISSEN
100
AcDbCircle
 10
664.6363513558943
 20
401.8498558791022
 30
-1.216824643738492
 40
1.5
100
AcDbArc
 50
0.0
 51
90.0
  0
LINE
  5
25B
330
2
100
AcDbEntity
  8
L-ZISSEN
100
AcDbLine
 10
608.1363513558967
 20
463.899418203408
 30
0.0
 11
608.1363513558967
 21
481.3994182034098
 31
0.0
  0
LINE
  5
25C
330
2
100
AcDbEntity
  8
L-ZISSEN
100
AcDbLine
 10
613.6363513558968
 20
449.2528767590597
 30
0.0
 11
639.6045431450398
 21
449.2528767590588
 31
0.0
  0
ARC
  5
25D
330
2
100
AcDbEntity
  8
L-ZISSEN
100
AcDbCircle
 10
645.2927060057095
 20
462.3994182034098
 30
0.0
 40
5.0
100
AcDbArc
 50
90.0
 51
176.9999999999944
  0
ARC
  5
25E
330
2
100
AcDbEntity
  8
L-HASEN
100
AcDbCircle
 10
719.1363513558967
 20
438.8994182034107
 30
0.0
 40
4.0
100
AcDbArc
 50
90.0
 51
269.9999999999943
  0
LINE
  5
25F
330
2
100
AcDbEntity
  8
L-TYUSIN
100
AcDbLine
 10
719.1363513558967
 20
445.4364939381807
 30
0.0
 11
719.1363513558967
 21
432.3623424686397
 31
0.0
  0
LINE
  5
260
330
2
100
AcDbEntity
  8
L-ZISSEN
100
AcDbLine
 10
276.7942765649335
 20
548.3994182033979
 30
-1.216824643738492
 11
264.2942765649335
 21
548.3994182033979
 31
-1.216824643738492
  0
ARC
  5
261
330
2
100
AcDbEntity
  8
L-ZISSEN
100
AcDbCircle
 10
270.7942765649335
 20
563.399418203398
 30
-1.216824643738492
 40
6.0
100
AcDbArc
 50
359.9999820000007
 51
89.99995999999597
  0
LINE
  5
262
330
2
100
AcDbEntity
  8
L-ZISSEN
100
AcDbLine
 10
276.4442785649338
 20
545.1994282033988
 30
-1.216824643738492
 11
264.6442808481227
 21
545.1994282033988
 31
-1.216824643738492
  0
LINE
  5
263
330
2
100
AcDbEntity
  8
L-ZISSEN
100
AcDbLine
 10
276.4442785649338
 20
546.399418203398
 30
-1.216824643738492
 11
264.6442745649332
 21
546.399418203398
 31
-1.216824643738492
  0
LINE
  5
264
330
2
100
AcDbEntity
  8
L-ZISSEN
100
AcDbLine
 10
276.4442785649338
 20
543.399418203398
 30
-1.216824643738492
 11
264.6442808481227
 21
543.399418203398
 31
-1.216824643738492
  0
LINE
  5
265
330
2
100
AcDbEntity
  8
L-ZISSEN
100
AcDbLine
 10
282.5269805649318
 20
536.4806682034104
 30
-1.216824643738492
 11
269.5269805649318
 21
536.4806682034104
 31
-1.216824643738492
  0
LINE
  5
266
330
2
100
AcDbEntity
  8
L-TYUSIN
100
AcDbLine
 10
234.8269805649315
 20
571.3994182034089
 30
-1.349712026291307
 11
307.6067496507239
 21
571.3994182034098
 31
-1.349712026291307
  0
LINE
  5
267
330
2
100
AcDbEntity
  8
L-TYUSIN
100
AcDbLine
 10
234.8269805649315
 20
521.3994182034089
 30
-1.349712026291307
 11
307.8269805649315
 21
521.3994182034098
 31
-1.349712026291307
  0
LINE
  5
268
330
2
100
AcDbEntity
  8
L-ZISSEN
100
AcDbLine
 10
295.3269805649315
 20
582.79941820341
 30
-1.216824643738497
 11
254.826980564932
 21
582.7994182034101
 31
-1.216824643738497
  0
LINE
  5
269
330
2
100
AcDbEntity
  8
L-ZISSEN
100
AcDbLine
 10
253.5442765649335
 20
568.403448203398
 30
-1.216824643738492
 11
253.5442765649335
 21
558.3953982033995
 31
-1.216824643738492
  0
LINE
  5
26A
330
2
100
AcDbEntity
  8
L-ZISSEN
100
AcDbLine
 10
253.5442765649335
 20
568.403448203398
 30
-1.216824643738492
 11
253.5442765649335
 21
558.3953982033995
 31
-1.216824643738492
  0
LINE
  5
26B
330
2
100
AcDbEntity
  8
L-ZISSEN
100
AcDbLine
 10
258.5442765649335
 20
569.3994182033979
 30
-1.216824643738492
 11
258.5442765649335
 21
557.4135782033986
 31
-1.216824643738492
  0
LINE
  5
26C
330
2
100
AcDbEntity
  8
L-ZISSEN
100
AcDbLine
 10
252.9442785649338
 20
567.7850282033992
 30
-1.216824643738492
 11
252.9442785649338
 21
559.0335582033981
 31
-1.216824643738492
  0
LINE
  5
26D
330
2
100
AcDbEntity
  8
L-ZISSEN
100
AcDbLine
 10
269.5269805649318
 20
540.6494182034105
 30
-1.216824643738492
 11
258.2269805649317
 21
540.6494182034105
 31
-1.216824643738492
  0
LINE
  5
26E
330
2
100
AcDbEntity
  8
L-ZISSEN
100
AcDbLine
 10
254.8269805649315
 20
536.1494182034091
 30
-1.216824643738492
 11
257.4269805649318
 21
536.1494182034091
 31
-1.216824643738492
  0
ARC
  5
26F
330
2
100
AcDbEntity
  8
L-ZISSEN
100
AcDbCircle
 10
258.2269805649316
 20
539.8494182034105
 30
-1.216824643738492
 40
0.8000000000000001
100
AcDbArc
 50
89.99999999999998
 51
180.0
  0
LINE
  5
270
330
2
100
AcDbEntity
  8
L-TYUSIN
100
AcDbLine
 10
270.5442797065265
 20
563.399418203398
 30
-1.216824643738492
 11
247.1608676610561
 21
563.399418203398
 31
-1.216824643738492
  0
LINE
  5
271
330
2
100
AcDbEntity
  8
L-ZISSEN
100
AcDbLine
 10
264.2942765649335
 20
557.3994182033979
 30
-1.216824643738492
 11
258.5442765649335
 21
557.3994182033979
 31
-1.216824643738492
  0
LINE
  5
272
330
2
100
AcDbEntity
  8
L-ZISSEN
100
AcDbLine
 10
254.8269805649333
 20
546.3994182034098
 30
-0.6084123218692526
 11
249.5269805649334
 21
546.3994182034097
 31
-0.6084123218692526
  0
LINE
  5
273
330
2
100
AcDbEntity
  8
L-ZISSEN
100
AcDbLine
 10
253.5302445649343
 20
558.394808203398
 30
-1.216824643738492
 11
249.5269805649335
 21
558.5225682033992
 31
-1.216824643738492
  0
LINE
  5
274
330
2
100
AcDbEntity
  8
L-ZISSEN
100
AcDbLine
 10
252.9442795649341
 20
559.0138082033986
 30
-1.216824643738492
 11
249.5461185649332
 21
559.1222482033986
 31
-1.216824643738492
  0
LINE
  5
275
330
2
100
AcDbEntity
  8
L-ZISSEN
100
AcDbLine
 10
258.272525564935
 20
556.3994182033979
 30
-1.216824643738492
 11
254.0790975649346
 21
556.3994182033979
 31
-1.216824643738492
  0
LINE
  5
276
330
2
100
AcDbEntity
  8
L-ZISSEN
100
AcDbLine
 10
253.5443025649332
 20
558.3940382033993
 30
-1.216824643738492
 11
252.9443075649345
 21
559.0335782033975
 31
-1.216824643738492
  0
LINE
  5
277
330
2
100
AcDbEntity
  8
L-ZISSEN
100
AcDbLine
 10
254.0790615649351
 20
556.3994182033979
 30
-1.216824643738492
 11
253.5442425649347
 21
558.3953982033995
 31
-1.216824643738492
  0
LINE
  5
278
330
2
100
AcDbEntity
  8
L-ZISSEN
100
AcDbLine
 10
258.5404785649337
 20
557.3994082033983
 30
-1.216824643738492
 11
258.2725305649331
 21
556.3994282033995
 31
-1.216824643738492
  0
LINE
  5
279
330
2
100
AcDbEntity
  8
L-ZISSEN
100
AcDbLine
 10
264.2942765649335
 20
557.3994182033979
 30
-1.216824643738492
 11
264.2942765649335
 21
548.3994182033979
 31
-1.216824643738492
  0
LINE
  5
27A
330
2
100
AcDbEntity
  8
L-TYUSIN
100
AcDbLine
 10
270.5442797065265
 20
563.399418203398
 30
-1.216824643738492
 11
270.5442797065283
 21
543.3994240422207
 31
-1.216824643738492
  0
LINE
  5
27B
330
2
100
AcDbEntity
  8
L-ZISSEN
100
AcDbLine
 10
264.6442808481227
 20
545.1994282033988
 30
-1.216824643738492
 11
264.6442808481227
 21
543.399418203398
 31
-1.216824643738492
  0
LINE
  5
27C
330
2
100
AcDbEntity
  8
L-ZISSEN
100
AcDbLine
 10
266.494273564935
 20
546.399418203398
 30
-1.216824643738492
 11
266.494273564935
 21
545.1994282033988
 31
-1.216824643738492
  0
LINE
  5
27D
330
2
100
AcDbEntity
  8
L-ZISSEN
100
AcDbLine
 10
264.6442745649332
 20
548.3994182033979
 30
-1.216824643738492
 11
264.6442745649332
 21
546.399418203398
 31
-1.216824643738492
  0
LINE
  5
27E
330
2
100
AcDbEntity
  8
L-ZISSEN
100
AcDbLine
 10
274.5942795649337
 20
546.399418203398
 30
-1.216824643738492
 11
274.5942795649337
 21
545.1994282033988
 31
-1.216824643738492
  0
LINE
  5
27F
330
2
100
AcDbEntity
  8
L-ZISSEN
100
AcDbLine
 10
264.2942805649348
 20
555.2959682033974
 30
-1.216824643738492
 11
262.1908185649339
 21
557.3994282033996
 31
-1.216824643738492
  0
LINE
  5
280
330
2
100
AcDbEntity
  8
L-TYUSIN
100
AcDbLine
 10
213.8269805649333
 20
591.3994182034096
 30
-1.902877901012732
 11
213.8269805649333
 21
601.3994182034098
 31
-2.036745238316731
  0
LINE
  5
281
330
2
100
AcDbEntity
  8
L-ZISSEN
 48
3.0
100
AcDbLine
 10
226.9269805649341
 20
607.3994182034096
 30
-1.216824643738492
 11
224.7269805649343
 21
607.3994182034096
 31
-1.216824643738492
  0
LINE
  5
282
330
2
100
AcDbEntity
  8
L-ZISSEN
 48
3.0
100
AcDbLine
 10
228.7855286806061
 20
606.8994182034093
 30
-1.216824643738492
 11
222.8684324492619
 21
606.8994182034103
 31
-1.216824643738492
  0
LINE
  5
283
330
2
100
AcDbEntity
  8
L-ZISSEN
 48
3.0
100
AcDbLine
 10
222.0769805649343
 20
596.8994182034091
 30
-1.216824643738492
 11
229.5769805649322
 21
596.8994182034091
 31
-1.216824643738492
  0
LINE
  5
284
330
2
100
AcDbEntity
  8
L-ZISSEN
 48
3.0
100
AcDbLine
 10
222.3269805649331
 20
599.3994182034091
 30
-1.216824643738492
 11
229.3269805649333
 21
599.3994182034091
 31
-1.216824643738492
  0
LINE
  5
285
330
2
100
AcDbEntity
  8
L-TYUSIN
100
AcDbLine
 10
225.8269805649333
 20
593.3994182034093
 30
-1.216824643738492
 11
225.8269805649333
 21
610.3994182034096
 31
-1.216824643738492
  0
LINE
  5
286
330
2
100
AcDbEntity
  8
L-ZISSEN
 48
3.0
100
AcDbLine
 10
225.8269805649335
 20
596.8994182034089
 30
-1.216824643738492
 11
225.8269805649333
 21
606.8994182034098
 31
-1.216824643738492
  0
LINE
  5
287
330
2
100
AcDbEntity
  8
L-ZISSEN
 48
3.0
100
AcDbLine
 10
222.3269805649333
 20
606.5868108122397
 30
-1.216824643738492
 11
222.3269805649333
 21
599.712025594579
 31
-1.216824643738492
  0
LINE
  5
288
330
2
100
AcDbEntity
  8
L-ZISSEN
 48
3.0
100
AcDbLine
 10
222.0769805649343
 20
596.8994182034095
 30
-1.216824643738492
 11
222.0769805649338
 21
596.3994182034095
 31
-1.216824643738492
  0
LINE
  5
289
330
2
100
AcDbEntity
  8
L-ZISSEN
 48
3.0
100
AcDbLine
 10
222.868432449261
 20
599.3994182034096
 30
-1.216824643738492
 11
222.3269805649333
 21
599.712025594579
 31
-1.216824643738492
  0
LINE
  5
28A
330
2
100
AcDbEntity
  8
L-ZISSEN
 48
3.0
100
AcDbLine
 10
222.3269805649333
 20
596.8994182034095
 30
-1.216824643738492
 11
222.3269805649333
 21
599.3994182034096
 31
-1.216824643738492
  0
LINE
  5
28B
330
2
100
AcDbEntity
  8
L-ZISSEN
 48
3.0
100
AcDbLine
 10
222.868432449261
 20
606.8994182034096
 30
-1.216824643738492
 11
222.3269805649333
 21
606.5868108122397
 31
-1.216824643738492
  0
LINE
  5
28C
330
2
100
AcDbEntity
  8
L-ZISSEN
 48
3.0
100
AcDbLine
 10
224.7269805649343
 20
607.3994182034096
 30
-1.216824643738492
 11
224.7269805649343
 21
606.8994182034096
 31
-1.216824643738492
  0
LINE
  5
28D
330
2
100
AcDbEntity
  8
L-ZISSEN
 48
3.0
100
AcDbLine
 10
229.3269805649333
 20
606.5868108122397
 30
-1.216824643738492
 11
229.3269805649333
 21
599.712025594579
 31
-1.216824643738492
  0
LINE
  5
28E
330
2
100
AcDbEntity
  8
L-ZISSEN
 48
3.0
100
AcDbLine
 10
228.7855286806057
 20
599.3994182034096
 30
-1.216824643738492
 11
229.3269805649333
 21
599.712025594579
 31
-1.216824643738492
  0
LINE
  5
28F
330
2
100
AcDbEntity
  8
L-ZISSEN
 48
3.0
100
AcDbLine
 10
229.3269805649333
 20
596.8994182034095
 30
-1.216824643738492
 11
229.3269805649333
 21
599.3994182034096
 31
-1.216824643738492
  0
LINE
  5
290
330
2
100
AcDbEntity
  8
L-ZISSEN
 48
3.0
100
AcDbLine
 10
229.5769805649322
 20
596.8994182034095
 30
-1.216824643738492
 11
229.5769805649326
 21
596.3994182034095
 31
-1.216824643738492
  0
LINE
  5
291
330
2
100
AcDbEntity
  8
L-ZISSEN
 48
3.0
100
AcDbLine
 10
228.7855286806057
 20
606.8994182034096
 30
-1.216824643738492
 11
229.3269805649333
 21
606.5868108122397
 31
-1.216824643738492
  0
LINE
  5
292
330
2
100
AcDbEntity
  8
L-ZISSEN
 48
3.0
100
AcDbLine
 10
226.9269805649341
 20
607.3994182034096
 30
-1.216824643738492
 11
226.9269805649341
 21
606.8994182034096
 31
-1.216824643738492
  0
LINE
  5
293
330
2
100
AcDbEntity
  8
L-ZISSEN
100
AcDbLine
 10
254.8269805649315
 20
570.3994182033979
 30
-1.216824643738492
 11
254.8269805649315
 21
596.3994182034098
 31
-1.216824643738492
  0
LINE
  5
294
330
2
100
AcDbEntity
  8
L-ZISSEN
100
AcDbLine
 10
260.826980564931
 20
581.2143727796385
 30
-1.08393726118575
 11
254.8269805649311
 21
581.2143727796385
 31
-1.08393726118575
  0
LINE
  5
295
330
2
100
AcDbEntity
  8
L-ZISSEN
100
AcDbLine
 10
270.7942765649335
 20
569.3994182033979
 30
-1.216824643738492
 11
258.5442765649335
 21
569.3994182033979
 31
-1.216824643738492
  0
LINE
  5
296
330
2
100
AcDbEntity
  8
L-ZISSEN
100
AcDbLine
 10
254.8269805649311
 20
577.5494182034138
 30
-1.08393726118575
 11
254.8269805649311
 21
581.2143727796385
 31
-1.08393726118575
  0
LINE
  5
297
330
2
100
AcDbEntity
  8
L-ZISSEN
100
AcDbLine
 10
252.9442785649338
 20
567.7850682033981
 30
-1.216824643738492
 11
249.5142775649331
 21
567.6755982033987
 31
-1.216824643738492
  0
LINE
  5
298
330
2
100
AcDbEntity
  8
L-ZISSEN
100
AcDbLine
 10
253.530243564934
 20
568.4040782033985
 30
-1.216824643738492
 11
249.5269755649336
 21
568.2763182033991
 31
-1.216824643738492
  0
LINE
  5
299
330
2
100
AcDbEntity
  8
L-ZISSEN
100
AcDbLine
 10
258.272525564935
 20
570.3994182033979
 30
-1.216824643738492
 11
254.0790975649346
 21
570.3994182033979
 31
-1.216824643738492
  0
LINE
  5
29A
330
2
100
AcDbEntity
  8
L-ZISSEN
100
AcDbLine
 10
253.5442785649341
 20
568.4048282033977
 30
-1.216824643738492
 11
252.9442855649343
 21
567.7652682033981
 31
-1.216824643738492
  0
LINE
  5
29B
330
2
100
AcDbEntity
  8
L-ZISSEN
100
AcDbLine
 10
254.0790975649346
 20
570.3994282033995
 30
-1.216824643738492
 11
253.5442765649335
 21
568.403448203398
 31
-1.216824643738492
  0
LINE
  5
29C
330
2
100
AcDbEntity
  8
L-ZISSEN
100
AcDbLine
 10
258.5404855649343
 20
569.3994182033979
 30
-1.216824643738492
 11
258.2725395649343
 21
570.3994082033982
 31
-1.216824643738492
  0
LINE
  5
29D
330
2
100
AcDbEntity
  8
L-ZISSEN
100
AcDbLine
 10
254.8269805649311
 20
581.2143727796385
 30
-1.08393726118575
 11
254.8269805649306
 21
582.3994182034113
 31
-1.08393726118575
  0
LINE
  5
29E
330
2
100
AcDbEntity
  8
L-ZISSEN
100
AcDbLine
 10
261.8269805649307
 20
569.3994182033979
 30
-1.08393726118575
 11
261.8269805649301
 21
578.7606341355815
 31
-1.08393726118575
  0
LINE
  5
29F
330
2
100
AcDbEntity
  8
L-ZISSEN
100
AcDbLine
 10
264.8269805649315
 20
569.3994182033981
 30
-1.216824643738497
 11
264.8269805649315
 21
582.79941820341
 31
-1.216824643738497
  0
ELLIPSE
  5
2A0
330
2
100
AcDbEntity
  8
L-ZISSEN
100
AcDbEllipse
 10
260.826980564931
 20
578.7606341355815
 30
-1.08393726118575
 11
-0.0000000000052847
 21
2.453738644089471
 31
0.0
210
0.0
220
0.0
230
1.0
 40
0.4075413664812205
 41
-1.570796326795774
 42
-1.229325903849909
  0
LINE
  5
2A1
330
2
100
AcDbEntity
  8
L-ZISSEN
100
AcDbLine
 10
260.826980564931
 20
581.2143727796385
 30
-1.08393726118575
 11
261.7692438443759
 21
579.5823249055313
 31
-1.08393726118575
  0
LINE
  5
2A2
330
2
100
AcDbEntity
  8
L-ZISSEN
100
AcDbLine
 10
297.3269805649315
 20
561.1541187417889
 30
-1.216824643738497
 11
297.3269805649315
 21
581.6447176650305
 31
-1.216824643738497
  0
LINE
  5
2A3
330
2
100
AcDbEntity
  8
L-ZISSEN
100
AcDbLine
 10
293.8269805649315
 20
559.9994182034098
 30
-1.216824643738497
 11
293.8269805649315
 21
582.79941820341
 31
-1.216824643738497
  0
LINE
  5
2A4
330
2
100
AcDbEntity
  8
L-ZISSEN
100
AcDbLine
 10
295.3269805649315
 20
559.9994182034098
 30
-1.216824643738497
 11
295.3269805649315
 21
582.79941820341
 31
-1.216824643738497
  0
LINE
  5
2A5
330
2
100
AcDbEntity
  8
L-ZISSEN
100
AcDbLine
 10
295.6475638554491
 20
534.6494182034091
 30
-1.216824643738492
 11
286.4466019611258
 21
534.6494182034091
 31
-1.216824643738492
  0
LINE
  5
2A6
330
2
100
AcDbEntity
  8
L-ZISSEN
100
AcDbLine
 10
282.5269805649318
 20
531.3994182034105
 30
-1.216824643738492
 11
284.2466019611258
 21
531.3994182034105
 31
-1.216824643738492
  0
LINE
  5
2A7
330
2
100
AcDbEntity
  8
L-ZISSEN
100
AcDbLine
 10
284.2466019611258
 20
534.1494182034091
 30
-1.216824643738492
 11
285.9466019611259
 21
534.1494182034091
 31
-1.216824643738492
  0
LINE
  5
2A8
330
2
100
AcDbEntity
  8
L-ZISSEN
100
AcDbLine
 10
286.4466019611258
 20
534.6494182034091
 30
-1.216824643738492
 11
285.9466019611259
 21
534.1494182034091
 31
-1.216824643738492
  0
LINE
  5
2A9
330
2
100
AcDbEntity
  8
L-ZISSEN
100
AcDbLine
 10
301.2269805649316
 20
533.1494182034091
 30
-1.216824643738492
 11
299.4466019611259
 21
533.1494182034091
 31
-1.216824643738492
  0
LINE
  5
2AA
330
2
100
AcDbEntity
  8
L-ZISSEN
100
AcDbLine
 10
299.111665470587
 20
535.1494182034091
 30
-1.216824643738492
 11
295.7815384516647
 21
535.1494182034091
 31
-1.216824643738492
  0
LINE
  5
2AB
330
2
100
AcDbEntity
  8
L-ZISSEN
100
AcDbLine
 10
295.6475638554491
 20
534.6494182034091
 30
-1.216824643738492
 11
295.7815384516647
 21
535.1494182034091
 31
-1.216824643738492
  0
LINE
  5
2AC
330
2
100
AcDbEntity
  8
L-ZISSEN
100
AcDbLine
 10
299.4466019611259
 20
533.8994182034091
 30
-1.216824643738492
 11
299.111665470587
 21
535.1494182034091
 31
-1.216824643738492
  0
LINE
  5
2AD
330
2
100
AcDbEntity
  8
L-ZISSEN
100
AcDbLine
 10
299.4466019611259
 20
533.1494182034091
 30
-1.216824643738492
 11
299.4466019611259
 21
533.3994182034091
 31
-1.216824643738492
  0
ARC
  5
2AE
330
2
100
AcDbEntity
  8
L-ZISSEN
100
AcDbCircle
 10
301.8269805649315
 20
532.8994182034091
 30
-1.216824643738492
 40
1.0
100
AcDbArc
 50
0.0
 51
89.99999999999998
  0
LINE
  5
2AF
330
2
100
AcDbEntity
  8
L-ZISSEN
100
AcDbLine
 10
301.8269805649315
 20
533.8994182034091
 30
-1.216824643738492
 11
301.2269805649316
 21
533.8994182034091
 31
-1.216824643738492
  0
LINE
  5
2B0
330
2
100
AcDbEntity
  8
L-ZISSEN
100
AcDbLine
 10
295.3269805649315
 20
559.9994182034098
 30
-1.216824643738497
 11
276.7942765649335
 21
559.9994182034098
 31
-1.216824643738497
  0
LINE
  5
2B1
330
2
100
AcDbEntity
  8
L-ZISSEN
100
AcDbLine
 10
276.7942765649335
 20
563.399418203398
 30
-1.216824643738492
 11
276.7942765649335
 21
548.3994182033979
 31
-1.216824643738492
  0
LINE
  5
2B2
330
2
100
AcDbEntity
  8
L-ZISSEN
100
AcDbLine
 10
276.4442785649338
 20
545.1994282033988
 30
-1.216824643738492
 11
276.4442785649338
 21
543.399418203398
 31
-1.216824643738492
  0
LINE
  5
2B3
330
2
100
AcDbEntity
  8
L-ZISSEN
100
AcDbLine
 10
276.4442785649338
 20
548.3994182033979
 30
-1.216824643738492
 11
276.4442785649338
 21
546.399418203398
 31
-1.216824643738492
  0
LINE
  5
2B4
330
2
100
AcDbEntity
  8
L-ZISSEN
100
AcDbLine
 10
295.3269805649315
 20
559.9994182034098
 30
-1.216824643738497
 11
297.3269805649315
 21
561.1541187417889
 31
-1.216824643738497
  0
LINE
  5
2B5
330
2
100
AcDbEntity
  8
L-ZISSEN
100
AcDbLine
 10
295.3269805649315
 20
582.79941820341
 30
-1.216824643738497
 11
297.3269805649315
 21
581.6447176650309
 31
-1.216824643738497
  0
TEXT
  5
2B6
330
2
100
AcDbEntity
  8
L-ZISSEN
100
AcDbText
 10
241.3203419298068
 20
854.8193228775705
 30
-0.4755249393164434
 40
4.5
  1
3
100
AcDbText
  0
TEXT
  5
2B7
330
2
100
AcDbEntity
  8
L-ZISSEN
100
AcDbText
 10
241.3203419298068
 20
848.0730423181103
 30
-0.4755249393164434
 40
4.5
  1
4
100
AcDbText
  0
TEXT
  5
2B8
330
2
100
AcDbEntity
  8
L-ZISSEN
100
AcDbText
 10
255.907588321774
 20
854.8193228775705
 30
-0.4755249393164434
 40
4.5
  1
1
100
AcDbText
  0
TEXT
  5
2B9
330
2
100
AcDbEntity
  8
L-ZISSEN
100
AcDbText
 10
255.1295858895016
 20
848.0730423181103
 30
-0.4755249393164434
 40
4.5
  1
3
100
AcDbText
  0
CIRCLE
  5
2BA
330
2
100
AcDbEntity
  8
L-ZISSEN
100
AcDbCircle
 10
647.1363513558949
 20
720.0097068399095
 30
0.0
 40
19.0
  0
LINE
  5
2BB
330
2
100
AcDbEntity
  8
L-TYUSIN
100
AcDbLine
 10
647.1363513558949
 20
758.5640166333446
 30
0.0
 11
647.1363513558949
 21
696.0097068399095
 31
0.0
  0
LINE
  5
2BC
330
2
100
AcDbEntity
  8
L-TYUSIN
100
AcDbLine
 10
647.1363513558949
 20
758.5640166333446
 30
0.0
 11
647.1363513558949
 21
696.0097068399095
 31
0.0
  0
LINE
  5
2BD
330
2
100
AcDbEntity
  8
L-ZISSEN
100
AcDbLine
 10
563.6363513558968
 20
596.3994182034098
 30
-0.6084123218692526
 11
613.6363513558968
 21
596.3994182034098
 31
-0.6084123218692526
  0
POLYLINE
  5
2BE
330
2
100
AcDbEntity
  8
L-ZISSEN
100
AcDb2dPolyline
 66
     1
 10
0.0
 20
0.0
 30
-0.6084123218690822
 70
     1
  0
VERTEX
  5
48F
330
2BE
100
AcDbEntity
  8
L-ZISSEN
100
AcDbVertex
100
AcDb2dVertex
 10
607.5438286440125
 20
563.0459596477606
 30
-0.6084123218690822
  0
VERTEX
  5
490
330
2BE
100
AcDbEntity
  8
L-ZISSEN
100
AcDbVertex
100
AcDb2dVertex
 10
612.4513059321238
 20
571.5459596477606
 30
-0.6084123218690822
  0
VERTEX
  5
491
330
2BE
100
AcDbEntity
  8
L-ZISSEN
100
AcDbVertex
100
AcDb2dVertex
 10
607.5438286440125
 20
580.0459596477606
 30
-0.6084123218690822
  0
VERTEX
  5
492
330
2BE
100
AcDbEntity
  8
L-ZISSEN
100
AcDbVertex
100
AcDb2dVertex
 10
597.728874067788
 20
580.0459596477606
 30
-0.6084123218690822
  0
VERTEX
  5
493
330
2BE
100
AcDbEntity
  8
L-ZISSEN
100
AcDbVertex
100
AcDb2dVertex
 10
592.8213967796758
 20
571.5459596477606
 30
-0.6084123218690822
  0
VERTEX
  5
494
330
2BE
100
AcDbEntity
  8
L-ZISSEN
100
AcDbVertex
100
AcDb2dVertex
 10
597.728874067788
 20
563.0459596477606
 30
-0.6084123218690822
  0
SEQEND
  5
495
330
2BE
100
AcDbEntity
  8
L-ZISSEN
  0
CIRCLE
  5
2BF
330
2
100
AcDbEntity
  8
L-ZISSEN
100
AcDbCircle
 10
602.6363513559003
 20
571.5459596477606
 30
-0.6084123218690822
 40
8.5
  0
LINE
  5
2C0
330
2
100
AcDbEntity
  8
L-ZISSEN
100
AcDbLine
 10
563.6363513558968
 20
546.3994182034098
 30
-0.6084123218692526
 11
613.6363513558985
 21
546.3994182034098
 31
-0.6084123218692526
  0
LINE
  5
2C1
330
2
100
AcDbEntity
  8
L-TYUSIN
100
AcDbLine
 10
563.1363513558958
 20
521.3994182034098
 30
-1.349712026291307
 11
611.1363513558958
 21
521.3994182034098
 31
-1.349712026291307
  0
LINE
  5
2C2
330
2
100
AcDbEntity
  8
L-TYUSIN
  6
CENTER
 62
     1
100
AcDbLine
 10
692.1363513558989
 20
571.3994182034097
 30
-0.6084123218692528
 11
592.1373739959339
 21
571.3994182034097
 31
-0.6084123218692528
  0
LINE
  5
2C3
330
2
100
AcDbEntity
  8
L-TYUSIN
  6
CENTER
 62
     1
100
AcDbLine
 10
692.1363513558985
 20
571.3994182034098
 30
-0.6084123218692526
 11
587.1363513558963
 21
571.3994182034098
 31
-0.6084123218692526
  0
LINE
  5
2C4
330
2
100
AcDbEntity
  8
L-ZISSEN
100
AcDbLine
 10
539.1299943558973
 20
559.1494182033976
 30
-0.6084123218692534
 11
537.3863533558973
 21
557.4057782033979
 31
-0.6084123218692534
  0
LINE
  5
2C5
330
2
100
AcDbEntity
  8
L-ZISSEN
100
AcDbLine
 10
539.1090763558976
 20
559.1284982033977
 30
-0.6084123218692534
 11
537.6360433558974
 21
559.9789582033978
 31
-0.6084123218692534
  0
LINE
  5
2C6
330
2
100
AcDbEntity
  8
L-ZISSEN
100
AcDbLine
 10
549.8863503558976
 20
548.3994182033976
 30
-0.6084123218692534
 11
537.3863523558974
 21
548.3994182033976
 31
-0.6084123218692534
  0
LINE
  5
2C7
330
2
100
AcDbEntity
  8
L-ZISSEN
100
AcDbLine
 10
549.8863503558976
 20
557.3994182033977
 30
-0.6084123218692534
 11
537.3863523558973
 21
557.3994182033977
 31
-0.6084123218692534
  0
LINE
  5
2C8
330
2
100
AcDbEntity
  8
L-ZISSEN
100
AcDbLine
 10
543.636340355897
 20
570.2841482033979
 30
-0.6084123218692534
 11
537.6360423558971
 21
566.8198682033977
 31
-0.6084123218692534
  0
LINE
  5
2C9
330
2
100
AcDbEntity
  8
L-ZISSEN
100
AcDbLine
 10
549.5363503558973
 20
545.1994282033975
 30
-0.6084123218692534
 11
537.7363503558971
 21
545.1994282033975
 31
-0.6084123218692534
  0
LINE
  5
2CA
330
2
100
AcDbEntity
  8
L-ZISSEN
100
AcDbLine
 10
549.5363503558973
 20
546.3994182033976
 30
-0.6084123218692534
 11
537.7363503558971
 21
546.3994182033976
 31
-0.6084123218692534
  0
LINE
  5
2CB
330
2
100
AcDbEntity
  8
L-ZISSEN
100
AcDbLine
 10
549.5363503558973
 20
543.3994182033976
 30
-0.6084123218692534
 11
537.7363503558971
 21
543.3994182033976
 31
-0.6084123218692534
  0
LINE
  5
2CC
330
2
100
AcDbEntity
  8
L-ZISSEN
100
AcDbLine
 10
525.636351355897
 20
581.399418203397
 30
-0.6084123218692534
 11
561.6363513558971
 21
581.3994182033974
 31
-0.6084123218692534
  0
LINE
  5
2CD
330
2
100
AcDbEntity
  8
L-TYUSIN
100
AcDbLine
 10
525.6363513558975
 20
563.3994182033976
 30
-0.6084123218692534
 11
561.6363513558975
 21
563.3994182033976
 31
-0.6084123218692534
  0
LINE
  5
2CE
330
2
100
AcDbEntity
  8
L-ZISSEN
100
AcDbLine
 10
563.636351355898
 20
546.399418203396
 30
-0.6084123218692525
 11
523.636351355898
 21
546.399418203396
 31
-0.6084123218692549
  0
LINE
  5
2CF
330
2
100
AcDbEntity
  8
L-ZISSEN
100
AcDbLine
 10
537.6360393558974
 20
566.8198582033979
 30
-0.6084123218692534
 11
537.6360393558974
 21
563.3994182033976
 31
-0.6084123218692534
  0
LINE
  5
2D0
330
2
100
AcDbEntity
  8
L-ZISSEN
100
AcDbLine
 10
537.3863523558974
 20
557.3994182033977
 30
-0.6084123218692534
 11
537.3863523558974
 21
548.3994182033976
 31
-0.6084123218692534
  0
LINE
  5
2D1
330
2
100
AcDbEntity
  8
L-ZISSEN
100
AcDbLine
 10
537.7363503558971
 20
545.1994282033975
 30
-0.6084123218692534
 11
537.7363503558971
 21
543.3994182033976
 31
-0.6084123218692534
  0
LINE
  5
2D2
330
2
100
AcDbEntity
  8
L-ZISSEN
100
AcDbLine
 10
537.7363503558971
 20
548.3994182033976
 30
-0.6084123218692534
 11
537.7363503558971
 21
546.3994182033976
 31
-0.6084123218692534
  0
LINE
  5
2D3
330
2
100
AcDbEntity
  8
L-ZISSEN
100
AcDbLine
 10
537.6360393558974
 20
559.9789782033978
 30
-0.6084123218692534
 11
537.6360393558974
 21
563.3994182033976
 31
-0.6084123218692534
  0
LINE
  5
2D4
330
2
100
AcDbEntity
  8
L-ZISSEN
100
AcDbLine
 10
523.6363513558971
 20
579.3994182033969
 30
-0.6084123218692534
 11
525.636351355897
 21
581.399418203397
 31
-0.6084123218692534
  0
LINE
  5
2D5
330
2
100
AcDbEntity
  8
L-TYUSIN
100
AcDbLine
 10
602.6363513558966
 20
582.0459596477605
 30
-0.0000000000000002
 11
602.6363513558966
 21
561.0459596477605
 31
-0.0000000000000002
  0
LINE
  5
2D6
330
2
100
AcDbEntity
  8
L-ZISSEN
100
AcDbLine
 10
563.636351355897
 20
579.3994182033974
 30
-0.6084123218692525
 11
563.636351355898
 21
546.399418203396
 31
-0.6084123218692525
  0
LINE
  5
2D7
330
2
100
AcDbEntity
  8
L-ZISSEN
100
AcDbLine
 10
563.6363513558985
 20
579.3994182034089
 30
-0.6084123218692526
 11
563.6363513558985
 21
546.399418203407
 31
-0.6084123218692526
  0
ARC
  5
2D8
330
2
100
AcDbEntity
  8
L-ZISSEN
100
AcDbCircle
 10
543.6363503558976
 20
563.3994182033976
 30
-0.6084123218692534
 40
4.5
100
AcDbArc
 50
359.9999819999999
 51
89.99998726760169
  0
LINE
  5
2D9
330
2
100
AcDbEntity
  8
L-ZISSEN
100
AcDbLine
 10
549.636660355897
 20
566.8198582033979
 30
-0.6084123218692534
 11
549.636660355897
 21
563.3994182033976
 31
-0.6084123218692534
  0
ARC
  5
2DA
330
2
100
AcDbEntity
  8
L-ZISSEN
100
AcDbCircle
 10
543.6363503558976
 20
563.3994182033976
 30
-0.6084123218692534
 40
4.5
100
AcDbArc
 50
89.99998726760169
 51
180.0000200000003
  0
LINE
  5
2DB
330
2
100
AcDbEntity
  8
L-ZISSEN
100
AcDbLine
 10
549.8863503558976
 20
557.3994182033977
 30
-0.6084123218692534
 11
549.8863503558976
 21
548.3994182033976
 31
-0.6084123218692534
  0
LINE
  5
2DC
330
2
100
AcDbEntity
  8
L-ZISSEN
100
AcDbLine
 10
539.5863493558971
 20
546.3994182033976
 30
-0.6084123218692534
 11
539.5863493558971
 21
545.1994282033975
 31
-0.6084123218692534
  0
POINT
  5
2DD
330
2
100
AcDbEntity
  8
L-ZISSEN
100
AcDbPoint
 10
543.6363503558976
 20
543.3994182033976
 30
-0.6084123218692534
  0
LINE
  5
2DE
330
2
100
AcDbEntity
  8
L-ZISSEN
100
AcDbLine
 10
547.6863503558973
 20
546.3994182033976
 30
-0.6084123218692534
 11
547.6863503558973
 21
545.1994282033975
 31
-0.6084123218692534
  0
LINE
  5
2DF
330
2
100
AcDbEntity
  8
L-ZISSEN
100
AcDbLine
 10
549.5363503558973
 20
545.1994282033975
 30
-0.6084123218692534
 11
549.5363503558973
 21
543.3994182033976
 31
-0.6084123218692534
  0
LINE
  5
2E0
330
2
100
AcDbEntity
  8
L-ZISSEN
100
AcDbLine
 10
549.5363503558973
 20
548.3994182033976
 30
-0.6084123218692534
 11
549.5363503558973
 21
546.3994182033976
 31
-0.6084123218692534
  0
LINE
  5
2E1
330
2
100
AcDbEntity
  8
L-ZISSEN
100
AcDbLine
 10
539.1363523558974
 20
563.3994182033976
 30
-0.6084123218692534
 11
539.1363523558974
 21
559.1494182033976
 31
-0.6084123218692534
  0
POINT
  5
2E2
330
2
100
AcDbEntity
  8
L-ZISSEN
100
AcDbPoint
 10
543.6363503558976
 20
563.3994182033976
 30
-0.6084123218692534
  0
LINE
  5
2E3
330
2
100
AcDbEntity
  8
L-ZISSEN
100
AcDbLine
 10
548.1363503558976
 20
563.3994182033976
 30
-0.6084123218692534
 11
548.1363503558976
 21
559.1494182033976
 31
-0.6084123218692534
  0
LINE
  5
2E4
330
2
100
AcDbEntity
  8
L-ZISSEN
100
AcDbLine
 10
549.636660355897
 20
559.9789782033978
 30
-0.6084123218692534
 11
549.636660355897
 21
563.3994182033976
 31
-0.6084123218692534
  0
LINE
  5
2E5
330
2
100
AcDbEntity
  8
L-ZISSEN
100
AcDbLine
 10
548.1586503558973
 20
559.1256382033976
 30
-0.6084123218692534
 11
549.6366703558972
 21
559.978968203398
 31
-0.6084123218692534
  0
LINE
  5
2E6
330
2
100
AcDbEntity
  8
L-ZISSEN
100
AcDbLine
 10
549.8863703558972
 20
557.3979382033977
 30
-0.6084123218692534
 11
548.1363703558971
 21
559.1479382033977
 31
-0.6084123218692534
  0
LINE
  5
2E7
330
2
100
AcDbEntity
  8
L-ZISSEN
 48
3.0
100
AcDbLine
 10
571.3363513558995
 20
607.3994182034103
 30
-0.6084123218692526
 11
569.1363513558997
 21
607.3994182034103
 31
-0.6084123218692526
  0
LINE
  5
2E8
330
2
100
AcDbEntity
  8
L-ZISSEN
 48
3.0
100
AcDbLine
 10
566.1948994715717
 20
599.3994182034098
 30
-0.6084123218692526
 11
574.2778032402268
 21
599.3994182034098
 31
-0.6084123218692526
  0
LINE
  5
2E9
330
2
100
AcDbEntity
  8
L-ZISSEN
 48
3.0
100
AcDbLine
 10
566.1948994715719
 20
596.8994182034098
 30
-0.6084123218692526
 11
574.2778032402268
 21
596.8994182034098
 31
-0.6084123218692526
  0
LINE
  5
2EA
330
2
100
AcDbEntity
  8
L-ZISSEN
 48
3.0
100
AcDbLine
 10
573.7363513558996
 20
606.8994182034098
 30
-0.6084123218692526
 11
566.7363513559005
 21
606.8994182034109
 31
-0.6084123218692526
  0
LINE
  5
2EB
330
2
100
AcDbEntity
  8
L-ZISSEN
100
AcDbLine
 10
543.6363503558976
 20
570.2841482033979
 30
-0.6084123218692534
 11
549.636660355897
 21
566.8198682033977
 31
-0.6084123218692534
  0
LINE
  5
2EC
330
2
100
AcDbEntity
  8
L-HASEN
 48
0.5
100
AcDbLine
 10
563.6363513558993
 20
576.5494182034102
 30
-0.6084123218692528
 11
559.4363513558986
 21
576.5494182034098
 31
-0.6084123218692528
  0
CIRCLE
  5
2ED
330
2
100
AcDbEntity
  8
L-HASEN
 48
0.5
100
AcDbCircle
 10
563.036351355899
 20
566.99941820341
 30
-0.6084123218692528
 40
0.75
  0
LINE
  5
2EE
330
2
100
AcDbEntity
  8
L-HASEN
 48
0.5
100
AcDbLine
 10
563.6363513558993
 20
566.2494182034101
 30
-0.6084123218692528
 11
559.4363513558986
 21
566.2494182034095
 31
-0.6084123218692528
  0
CIRCLE
  5
2EF
330
2
100
AcDbEntity
  8
L-HASEN
 48
0.5
100
AcDbCircle
 10
563.036351355899
 20
575.7994182034093
 30
-0.6084123218692528
 40
0.75
  0
LINE
  5
2F0
330
2
100
AcDbEntity
  8
L-HASEN
 48
0.5
100
AcDbLine
 10
559.4363513558986
 20
566.2494182034095
 30
-0.6084123218691515
 11
559.4363513558986
 21
576.5494182034098
 31
-0.6084123218691515
  0
LINE
  5
2F1
330
2
100
AcDbEntity
  8
L-HASEN
 48
0.5
100
AcDbLine
 10
562.4363513558986
 20
566.2494182034095
 30
-0.6084123218691515
 11
562.4363513558986
 21
576.5494182034098
 31
-0.6084123218691515
  0
LINE
  5
2F2
330
2
100
AcDbEntity
  8
L-HASEN
 48
0.5
100
AcDbLine
 10
562.4363513558986
 20
569.8994182034097
 30
-0.6084123218692528
 11
559.4363513558986
 21
569.8994182034097
 31
-0.6084123218692528
  0
LINE
  5
2F3
330
2
100
AcDbEntity
  8
L-HASEN
 48
0.5
100
AcDbLine
 10
562.4363513558986
 20
566.3494182034099
 30
-0.6084123218692528
 11
559.4363513558986
 21
566.3494182034099
 31
-0.6084123218692528
  0
LINE
  5
2F4
330
2
100
AcDbEntity
  8
L-HASEN
 48
0.5
100
AcDbLine
 10
562.4363513558986
 20
576.4494182034098
 30
-0.6084123218692528
 11
559.4363513558986
 21
576.4494182034098
 31
-0.6084123218692528
  0
LINE
  5
2F5
330
2
100
AcDbEntity
  8
L-HASEN
 48
0.5
100
AcDbLine
 10
562.4363513558986
 20
572.8994182034097
 30
-0.6084123218692528
 11
559.4363513558986
 21
572.8994182034097
 31
-0.6084123218692528
  0
LINE
  5
2F6
330
2
100
AcDbEntity
  8
L-ZISSEN
100
AcDbLine
 10
561.6363513558971
 20
581.3994182033974
 30
-0.6084123218692534
 11
563.636351355897
 21
579.3994182033974
 31
-0.6084123218692525
  0
LINE
  5
2F7
330
2
100
AcDbEntity
  8
L-TYUSIN
100
AcDbLine
 10
570.2363513558984
 20
593.39941820341
 30
-0.6084123218692526
 11
570.2363513558984
 21
610.3994182034102
 31
-0.6084123218692526
  0
LINE
  5
2F8
330
2
100
AcDbEntity
  8
L-ZISSEN
 48
3.0
100
AcDbLine
 10
566.1948994715719
 20
606.5868108122404
 30
-0.6084123218692526
 11
566.1948994715719
 21
599.7120255945796
 31
-0.6084123218692526
  0
LINE
  5
2F9
330
2
100
AcDbEntity
  8
L-ZISSEN
 48
3.0
100
AcDbLine
 10
568.215625413736
 20
596.8994182034098
 30
-0.6084123218692526
 11
568.2156254137358
 21
606.8994182034105
 31
-0.6084123218692526
  0
LINE
  5
2FA
330
2
100
AcDbEntity
  8
L-ZISSEN
 48
3.0
100
AcDbLine
 10
566.1948994715719
 20
596.8994182034102
 30
-0.6084123218692526
 11
566.1948994715719
 21
599.3994182034103
 31
-0.6084123218692526
  0
LINE
  5
2FB
330
2
100
AcDbEntity
  8
L-ZISSEN
 48
3.0
100
AcDbLine
 10
566.7363513558996
 20
599.3994182034103
 30
-0.6084123218692526
 11
566.1948994715719
 21
599.7120255945796
 31
-0.6084123218692526
  0
LINE
  5
2FC
330
2
100
AcDbEntity
  8
L-ZISSEN
 48
3.0
100
AcDbLine
 10
566.4863513558996
 20
596.8994182034102
 30
-0.6084123218692526
 11
566.4863513558991
 21
596.3994182034102
 31
-0.6084123218692526
  0
LINE
  5
2FD
330
2
100
AcDbEntity
  8
L-ZISSEN
 48
3.0
100
AcDbLine
 10
566.7363513558996
 20
606.8994182034103
 30
-0.6084123218692526
 11
566.1948994715719
 21
606.5868108122404
 31
-0.6084123218692526
  0
LINE
  5
2FE
330
2
100
AcDbEntity
  8
L-ZISSEN
 48
3.0
100
AcDbLine
 10
569.1363513558997
 20
607.3994182034103
 30
-0.6084123218692526
 11
569.1363513558997
 21
606.8994182034103
 31
-0.6084123218692526
  0
LINE
  5
2FF
330
2
100
AcDbEntity
  8
L-ZISSEN
 48
3.0
100
AcDbLine
 10
574.2778032402268
 20
606.5868108122399
 30
-0.6084123218692526
 11
574.2778032402268
 21
599.7120255945796
 31
-0.6084123218692526
  0
LINE
  5
300
330
2
100
AcDbEntity
  8
L-ZISSEN
 48
3.0
100
AcDbLine
 10
572.2570772980628
 20
596.8994182034098
 30
-0.6084123218692526
 11
572.2570772980629
 21
606.8994182034103
 31
-0.6084123218692526
  0
LINE
  5
301
330
2
100
AcDbEntity
  8
L-ZISSEN
 48
3.0
100
AcDbLine
 10
573.7363513558996
 20
599.3994182034098
 30
-0.6084123218692526
 11
574.2778032402268
 21
599.7120255945796
 31
-0.6084123218692526
  0
LINE
  5
302
330
2
100
AcDbEntity
  8
L-ZISSEN
 48
3.0
100
AcDbLine
 10
573.7363513558996
 20
599.3994182034098
 30
-0.6084123218692526
 11
572.7363513558996
 21
599.3994182034098
 31
-0.6084123218692526
  0
LINE
  5
303
330
2
100
AcDbEntity
  8
L-ZISSEN
 48
3.0
100
AcDbLine
 10
574.2778032402268
 20
596.8994182034098
 30
-0.6084123218692526
 11
574.2778032402268
 21
599.3994182034098
 31
-0.6084123218692526
  0
LINE
  5
304
330
2
100
AcDbEntity
  8
L-ZISSEN
 48
3.0
100
AcDbLine
 10
573.9863513558995
 20
596.8994182034098
 30
-0.6084123218692526
 11
573.9863513558995
 21
596.3994182034098
 31
-0.6084123218692526
  0
LINE
  5
305
330
2
100
AcDbEntity
  8
L-ZISSEN
 48
3.0
100
AcDbLine
 10
573.7363513558996
 20
606.8994182034098
 30
-0.6084123218692526
 11
574.2778032402268
 21
606.5868108122399
 31
-0.6084123218692526
  0
LINE
  5
306
330
2
100
AcDbEntity
  8
L-ZISSEN
 48
3.0
100
AcDbLine
 10
571.3363513558995
 20
607.3994182034103
 30
-0.6084123218692526
 11
571.3363513558995
 21
606.8994182034103
 31
-0.6084123218692526
  0
LINE
  5
307
330
2
100
AcDbEntity
  8
L-ZISSEN
100
AcDbLine
 10
687.1363513558989
 20
559.999418203411
 30
-0.6084123218692528
 11
613.9363513558991
 21
559.9994182034094
 31
-0.6084123218692528
  0
LINE
  5
308
330
2
100
AcDbEntity
  8
L-ZISSEN
100
AcDbLine
 10
687.1363513558989
 20
582.7994182034111
 30
-0.6084123218692528
 11
613.9363513558991
 21
582.7994182034093
 31
-0.6084123218692528
  0
LINE
  5
309
330
2
100
AcDbEntity
  8
L-ZISSEN
100
AcDbLine
 10
644.1816508175196
 20
561.1541187417891
 30
-0.6084123218692528
 11
644.1816508175196
 21
581.6447176650302
 31
-0.6084123218692528
  0
LINE
  5
30A
330
2
100
AcDbEntity
  8
L-ZISSEN
100
AcDbLine
 10
649.136351355898
 20
559.9994182034101
 30
-0.6084123218692528
 11
649.1363513558988
 21
582.7994182034104
 31
-0.6084123218692528
  0
LINE
  5
30B
330
2
100
AcDbEntity
  8
L-ZISSEN
100
AcDbLine
 10
645.3363513558987
 20
559.9994182034101
 30
-0.6084123218692528
 11
645.3363513558987
 21
582.79941820341
 31
-0.6084123218692528
  0
LINE
  5
30C
330
2
100
AcDbEntity
  8
L-ZISSEN
100
AcDbLine
 10
653.6363513558988
 20
559.9994182034101
 30
-0.6084123218692528
 11
653.6363513558988
 21
582.7994182034102
 31
-0.6084123218692528
  0
LINE
  5
30D
330
2
100
AcDbEntity
  8
L-ZISSEN
100
AcDbLine
 10
655.1363513558989
 20
582.7994182034102
 30
-0.6084123218692528
 11
655.1363513558989
 21
559.9994182034105
 31
-0.6084123218692528
  0
LINE
  5
30E
330
2
100
AcDbEntity
  8
L-ZISSEN
100
AcDbLine
 10
615.0910518942781
 20
561.1541187417891
 30
-0.6084123218692528
 11
615.0910518942781
 21
581.6447176650302
 31
-0.6084123218692528
  0
LINE
  5
30F
330
2
100
AcDbEntity
  8
L-ZISSEN
100
AcDbLine
 10
613.9363513558991
 20
559.9994182034094
 30
-0.6084123218692528
 11
613.9363513558991
 21
582.7994182034095
 31
-0.6084123218692528
  0
LINE
  5
310
330
2
100
AcDbEntity
  8
L-ZISSEN
100
AcDbLine
 10
613.6363513558989
 20
596.3994182034097
 30
-0.6084123218692528
 11
613.6363513558989
 21
546.3994182034098
 31
-0.6084123218692528
  0
LINE
  5
311
330
2
100
AcDbEntity
  8
L-ZISSEN
100
AcDbLine
 10
613.6363513558985
 20
596.3994182034098
 30
-0.6084123218692526
 11
613.6363513558985
 21
546.3994182034098
 31
-0.6084123218692526
  0
LINE
  5
312
330
2
100
AcDbEntity
  8
L-ZISSEN
100
AcDbLine
 10
613.6363513558989
 20
546.8994182034098
 30
-0.6084123218692528
 11
645.6363513558979
 21
546.8994182034098
 31
-0.6084123218692528
  0
LINE
  5
313
330
2
100
AcDbEntity
  8
L-ZISSEN
100
AcDbLine
 10
644.1816508175196
 20
561.1541187417891
 30
-0.6084123218692528
 11
615.0910518942781
 21
561.1541187417891
 31
-0.6084123218692528
  0
LINE
  5
314
330
2
100
AcDbEntity
  8
L-ZISSEN
100
AcDbLine
 10
613.6363513558968
 20
549.2457127303322
 30
-0.6084123218692526
 11
613.6363513558968
 21
522.8457127303328
 31
-0.6084123218692526
  0
LINE
  5
315
330
2
100
AcDbEntity
  8
L-ZISSEN
100
AcDbLine
 10
645.6363513558989
 20
559.9994182034101
 30
-0.6084123218692528
 11
645.6363513558979
 21
546.8994182034097
 31
-0.6084123218692528
  0
LINE
  5
316
330
2
100
AcDbEntity
  8
L-ZISSEN
100
AcDbLine
 10
644.1816508175196
 20
581.6447176650306
 30
-0.6084123218692528
 11
615.0910518942781
 21
581.6447176650302
 31
-0.6084123218692528
  0
LINE
  5
317
330
2
100
AcDbEntity
  8
L-ZISSEN
100
AcDbLine
 10
613.6363513558984
 20
595.8994182034096
 30
-0.6084123218692528
 11
645.6363513558994
 21
595.8994182034096
 31
-0.6084123218692528
  0
LINE
  5
318
330
2
100
AcDbEntity
  8
L-ZISSEN
100
AcDbLine
 10
645.6363513558989
 20
595.8994182034096
 30
-0.6084123218692528
 11
645.6363513558989
 21
582.7994182034102
 31
-0.6084123218692528
  0
LINE
  5
319
330
2
100
AcDbEntity
  8
L-ZISSEN
100
AcDbLine
 10
687.1363513558989
 20
582.7994182034107
 30
-0.6084123218692528
 11
687.1363513558989
 21
559.999418203411
 31
-0.6084123218692528
  0
ARC
  5
31A
330
2
100
AcDbEntity
  8
L-ZISSEN
100
AcDbCircle
 10
643.6167736478282
 20
695.1026424156607
 30
0.0
 40
1.000000000000227
100
AcDbArc
 50
270.0
 51
22.55002479752634
  0
LINE
  5
31B
330
2
100
AcDbEntity
  8
L-ZISSEN
100
AcDbLine
 10
644.1167736478282
 20
695.1026424156607
 30
0.0
 11
651.1032988987603
 21
701.4284440412689
 31
0.0
  0
LINE
  5
31C
330
2
100
AcDbEntity
  8
L-ZISSEN
100
AcDbLine
 10
643.3815126590011
 20
695.8524975760415
 30
0.0
 11
648.7074464566899
 21
701.074774566879
 31
0.0
  0
LINE
  5
31D
330
2
100
AcDbEntity
  8
L-ZISSEN
100
AcDbLine
 10
641.1167736478282
 20
695.1026424156607
 30
0.0
 11
636.9728611835417
 21
703.9565617425624
 31
0.0
  0
LINE
  5
31E
330
2
100
AcDbEntity
  8
L-ZISSEN
100
AcDbLine
 10
642.6167736478283
 20
695.1026424156607
 30
0.0
 11
638.8810328737563
 21
702.896854454686
 31
0.0
  0
ARC
  5
31F
330
2
100
AcDbEntity
  8
L-ZISSEN
100
AcDbCircle
 10
641.6167736478286
 20
695.1026424156607
 30
0.0
 40
1.000000000000227
100
AcDbArc
 50
142.0080412750045
 51
270.0
  0
ARC
  5
320
330
2
100
AcDbEntity
  8
L-ZISSEN
100
AcDbCircle
 10
643.6167736478282
 20
695.1026424156607
 30
0.0
 40
1.000000000000227
100
AcDbArc
 50
88.87394999909856
 51
90.0
  0
ARC
  5
321
330
2
100
AcDbEntity
  8
L-ZISSEN
100
AcDbCircle
 10
641.8667736478282
 20
695.1026424156607
 30
0.0
 40
0.75
100
AcDbArc
 50
180.0
 51
0.0
  0
ARC
  5
322
330
2
100
AcDbEntity
  8
L-ZISSEN
100
AcDbCircle
 10
643.3667736478282
 20
695.1026424156607
 30
0.0
 40
0.75
100
AcDbArc
 50
88.87394999912485
 51
0.0
  0
LINE
  5
323
330
2
100
AcDbEntity
  8
L-ZISSEN
100
AcDbLine
 10
642.1374768625514
 20
696.1026424156607
 30
0.0
 11
643.63662261544
 21
696.1026424156607
 31
0.0
  0
LINE
  5
324
330
2
100
AcDbEntity
  8
L-ZISSEN
100
AcDbLine
 10
643.6167736478282
 20
694.1026424156607
 30
0.0
 11
641.6167736478286
 21
694.1026424156607
 31
0.0
  0
LINE
  5
325
330
2
100
AcDbEntity
  8
L-ZISSEN
100
AcDbLine
 10
613.6363513558949
 20
874.0097068399085
 30
-0.0000000000000002
 11
563.6363513558949
 21
874.0097068399085
 31
-0.0000000000000002
  0
LINE
  5
326
330
2
100
AcDbEntity
  8
L-ZISSEN
  6
CONTINUOUS
 62
     7
100
AcDbLine
 10
611.6363513558949
 20
874.0097068399077
 30
0.0
 11
565.6963513558944
 21
874.0097068399077
 31
0.0
  0
LINE
  5
327
330
2
100
AcDbEntity
  8
L-ZISSEN
100
AcDbLine
 10
608.1363513558967
 20
791.009706839904
 30
-0.0000000000001013
 11
603.7176013558971
 21
791.0097068399038
 31
-0.0000000000001013
  0
LINE
  5
328
330
2
100
AcDbEntity
  8
L-ZISSEN
100
AcDbLine
 10
595.2751354237311
 20
805.0097068399033
 30
-0.0000000000001013
 11
609.997567288066
 21
805.0097068399042
 31
-0.0000000000001013
  0
LINE
  5
329
330
2
100
AcDbEntity
  8
L-ZISSEN
100
AcDbLine
 10
613.6363513558968
 20
812.009706839904
 30
-0.0000000000001013
 11
563.6363513558949
 21
812.0097068399031
 31
-0.0000000000001013
  0
LINE
  5
32A
330
2
100
AcDbEntity
  8
L-ZISSEN
100
AcDbLine
 10
569.3863513558949
 20
797.3097068399034
 30
-0.0000000000001013
 11
607.8863513558972
 21
797.3097068399034
 31
-0.0000000000001013
  0
LINE
  5
32B
330
2
100
AcDbEntity
  8
L-TYUSIN
100
AcDbLine
 10
577.1563513558954
 20
853.0097068399077
 30
0.0
 11
604.1163513558944
 21
853.0097068399077
 31
0.0
  0
LINE
  5
32C
330
2
100
AcDbEntity
  8
L-ZISSEN
100
AcDbLine
 10
613.6363513558949
 20
762.5097068399086
 30
0.0
 11
566.6363513558949
 21
762.5097068399086
 31
0.0
  0
LINE
  5
32D
330
2
100
AcDbEntity
  8
L-ZISSEN
100
AcDbLine
 10
611.6363513558949
 20
756.5097068399086
 30
0.0
 11
557.1363513558948
 21
756.5097068399086
 31
0.0
  0
LINE
  5
32E
330
2
100
AcDbEntity
  8
L-ZISSEN
100
AcDbLine
 10
605.6363513558949
 20
725.0097068399086
 30
-2.309423799016662
 11
569.6363513558948
 21
725.0097068399086
 31
-2.309423799016662
  0
LINE
  5
32F
330
2
100
AcDbEntity
  8
L-ZISSEN
100
AcDbLine
 10
605.6363513558949
 20
747.0097068399086
 30
-2.309423799016662
 11
569.6363513558948
 21
747.0097068399086
 31
-2.309423799016662
  0
LINE
  5
330
330
2
100
AcDbEntity
  8
L-ZISSEN
100
AcDbLine
 10
569.3863513558949
 20
797.3097068399034
 30
-0.0000000000001013
 11
569.3863513558949
 21
808.6097068399036
 31
-0.0000000000001013
  0
LINE
  5
331
330
2
100
AcDbEntity
  8
L-TYUSIN
 48
0.5
100
AcDbLine
 10
587.6363513558949
 20
804.5014657566357
 30
0.0
 11
587.6363513558949
 21
721.7570485088758
 31
0.0
  0
LINE
  5
332
330
2
100
AcDbEntity
  8
L-HASEN
100
AcDbLine
 10
555.1363513558931
 20
812.0097068399031
 30
0.0
 11
555.1363513558931
 21
791.0097068399031
 31
0.0
  0
LINE
  5
333
330
2
100
AcDbEntity
  8
L-ZISSEN
100
AcDbLine
 10
536.1363513558949
 20
776.5097068399081
 30
0.0
 11
536.1363513558949
 21
817.3097068399025
 31
0.0
  0
LINE
  5
334
330
2
100
AcDbEntity
  8
L-ZISSEN
100
AcDbLine
 10
544.1363513558949
 20
776.5097068399086
 30
0.0
 11
544.1363513558944
 21
817.3097068399025
 31
0.0
  0
POLYLINE
  5
335
330
2
100
AcDbEntity
  8
L-ZISSEN
100
AcDb2dPolyline
 66
     1
 10
0.0
 20
0.0
 30
0.0
  0
VERTEX
  5
496
330
335
100
AcDbEntity
  8
L-ZISSEN
100
AcDbVertex
100
AcDb2dVertex
 10
533.1363513558958
 20
772.4682549555804
 30
0.0
  0
VERTEX
  5
497
330
335
100
AcDbEntity
  8
L-ZISSEN
100
AcDbVertex
100
AcDb2dVertex
 10
540.1363513558958
 20
768.4268030712528
 30
0.0
  0
VERTEX
  5
498
330
335
100
AcDbEntity
  8
L-ZISSEN
100
AcDbVertex
100
AcDb2dVertex
 10
547.1363513558958
 20
772.4682549555804
 30
0.0
  0
VERTEX
  5
499
330
335
100
AcDbEntity
  8
L-ZISSEN
100
AcDbVertex
100
AcDb2dVertex
 10
547.1363513558958
 20
780.5511587242349
 30
0.0
  0
VERTEX
  5
49A
330
335
100
AcDbEntity
  8
L-ZISSEN
100
AcDbVertex
100
AcDb2dVertex
 10
544.1363513558958
 20
782.283209531804
 30
0.0
  0
SEQEND
  5
49B
330
335
100
AcDbEntity
  8
L-ZISSEN
  0
ARC
  5
336
330
2
100
AcDbEntity
  8
L-ZISSEN
100
AcDbCircle
 10
540.1363513558958
 20
776.5097068399077
 30
0.0
 40
4.5
100
AcDbArc
 50
152.7339555492678
 51
27.2660444507322
  0
ARC
  5
337
330
2
100
AcDbEntity
  8
L-ZISSEN
100
AcDbCircle
 10
540.1363513558958
 20
776.5097068399077
 30
0.0
 40
4.0
100
AcDbArc
 50
180.0
 51
0.0
  0
POLYLINE
  5
338
330
2
100
AcDbEntity
  8
L-ZISSEN
100
AcDb2dPolyline
 66
     1
 10
0.0
 20
0.0
 30
0.0
  0
VERTEX
  5
49C
330
338
100
AcDbEntity
  8
L-ZISSEN
100
AcDbVertex
100
AcDb2dVertex
 10
536.1363513558958
 20
782.283209531804
 30
0.0
  0
VERTEX
  5
49D
330
338
100
AcDbEntity
  8
L-ZISSEN
100
AcDbVertex
100
AcDb2dVertex
 10
533.1363513558958
 20
780.5511587242349
 30
0.0
  0
VERTEX
  5
49E
330
338
100
AcDbEntity
  8
L-ZISSEN
100
AcDbVertex
100
AcDb2dVertex
 10
533.1363513558958
 20
772.4682549555804
 30
0.0
  0
SEQEND
  5
49F
330
338
100
AcDbEntity
  8
L-ZISSEN
  0
LINE
  5
339
330
2
100
AcDbEntity
  8
L-ZISSEN
100
AcDbLine
 10
593.6363513558949
 20
747.0097068399086
 30
-2.309423799016662
 11
593.6363513558949
 21
753.0097068399086
 31
-2.309423799016662
  0
LINE
  5
33A
330
2
100
AcDbEntity
  8
L-ZISSEN
100
AcDbLine
 10
581.6363513558949
 20
747.0097068399086
 30
-2.309423799016662
 11
581.6363513558949
 21
753.0097068399086
 31
-2.309423799016662
  0
LINE
  5
33B
330
2
100
AcDbEntity
  8
L-ZISSEN
100
AcDbLine
 10
569.6363513558948
 20
725.0097068399086
 30
-2.309423799016662
 11
569.6363513558948
 21
747.0097068399086
 31
-2.309423799016662
  0
LINE
  5
33C
330
2
100
AcDbEntity
  8
L-ZISSEN
100
AcDbLine
 10
587.6363513558949
 20
747.0097068399086
 30
-2.309423799016662
 11
593.6363513558949
 21
747.0097068399086
 31
-2.309423799016662
  0
LINE
  5
33D
330
2
100
AcDbEntity
  8
L-ZISSEN
100
AcDbLine
 10
573.5551013558972
 20
791.0097068399031
 30
-0.0000000000001013
 11
544.1363513558966
 21
791.0097068399025
 31
-0.0000000000001013
  0
LINE
  5
33E
330
2
100
AcDbEntity
  8
L-ZISSEN
100
AcDbLine
 10
567.136351355895
 20
791.0097068399033
 30
0.0
 11
567.1363513558949
 21
762.5097068399086
 31
0.0
  0
LINE
  5
33F
330
2
100
AcDbEntity
  8
L-ZISSEN
100
AcDbLine
 10
566.6363513558949
 20
762.5097068399086
 30
0.0
 11
566.636351355895
 21
791.0097068399033
 31
0.0
  0
LINE
  5
340
330
2
100
AcDbEntity
  8
L-ZISSEN
100
AcDbLine
 10
554.1363513559249
 20
781.3737068417772
 30
0.0
 11
554.1363513559249
 21
771.6457068380382
 31
0.0
  0
LINE
  5
341
330
2
100
AcDbEntity
  8
L-ZISSEN
  6
CONTINUOUS
 62
     7
100
AcDbLine
 10
555.1363513558949
 20
791.0097068399027
 30
0.0
 11
555.1363513558949
 21
758.5097068399086
 31
0.0
  0
LINE
  5
342
330
2
100
AcDbEntity
  8
L-ZISSEN
100
AcDbLine
 10
555.1363513558953
 20
772.1034490313873
 30
0.0
 11
554.1363513558958
 21
772.072197469683
 31
0.0
  0
LINE
  5
343
330
2
100
AcDbEntity
  8
L-ZISSEN
100
AcDbLine
 10
554.1363513559249
 20
771.6457068380382
 30
0.0
 11
555.1363513558953
 21
771.6769583997415
 31
0.0
  0
LINE
  5
344
330
2
100
AcDbEntity
  8
L-ZISSEN
100
AcDbLine
 10
553.9007924493335
 20
771.5097068399077
 30
0.0
 11
545.4760973180514
 21
771.5097068399077
 31
0.0
  0
LINE
  5
345
330
2
100
AcDbEntity
  8
L-ZISSEN
100
AcDbLine
 10
554.1363513559249
 20
772.0721974696839
 30
0.0
 11
553.1620890063709
 21
771.5097068399077
 31
0.0
  0
LINE
  5
346
330
2
100
AcDbEntity
  8
L-ZISSEN
100
AcDbLine
 10
554.1363513559249
 20
771.6457068380382
 30
0.0
 11
553.9007924493335
 21
771.5097068399077
 31
0.0
  0
ARC
  5
347
330
2
100
AcDbEntity
  8
L-ZISSEN
100
AcDbCircle
 10
557.1363513558948
 20
758.5097068399086
 30
0.0
 40
2.0
100
AcDbArc
 50
180.0
 51
270.0
  0
LINE
  5
348
330
2
100
AcDbEntity
  8
L-ZISSEN
100
AcDbLine
 10
555.1363513558953
 20
780.9159646484284
 30
0.0
 11
554.1363513558958
 21
780.9472162101323
 31
0.0
  0
LINE
  5
349
330
2
100
AcDbEntity
  8
L-ZISSEN
100
AcDbLine
 10
554.1363513559249
 20
781.3737068417772
 30
0.0
 11
555.1363513558953
 21
781.342455280074
 31
0.0
  0
LINE
  5
34A
330
2
100
AcDbEntity
  8
L-TYUSIN
100
AcDbLine
 10
540.1363513558958
 20
776.5097068399077
 30
0.0
 11
560.3191020133622
 21
776.5097068399077
 31
0.0
  0
LINE
  5
34B
330
2
100
AcDbEntity
  8
L-ZISSEN
100
AcDbLine
 10
545.4760973180514
 20
781.5097068399077
 30
0.0
 11
553.9007924493335
 21
781.5097068399077
 31
0.0
  0
LINE
  5
34C
330
2
100
AcDbEntity
  8
L-ZISSEN
100
AcDbLine
 10
554.1363513559249
 20
780.9472162101315
 30
0.0
 11
553.1620890063709
 21
781.5097068399077
 31
0.0
  0
LINE
  5
34D
330
2
100
AcDbEntity
  8
L-ZISSEN
100
AcDbLine
 10
554.1363513559249
 20
781.3737068417772
 30
0.0
 11
553.9007924493335
 21
781.5097068399077
 31
0.0
  0
LINE
  5
34E
330
2
100
AcDbEntity
  8
L-ZISSEN
100
AcDbLine
 10
601.8863513558958
 20
771.189123549386
 30
-0.0000000000001013
 11
601.8863513558958
 21
780.3900854437093
 31
-0.0000000000001013
  0
LINE
  5
34F
330
2
100
AcDbEntity
  8
L-ZISSEN
100
AcDbLine
 10
575.3863513558958
 20
771.1891235493858
 30
-0.0000000000001013
 11
575.3863513558958
 21
780.3900854437093
 31
-0.0000000000001013
  0
LINE
  5
350
330
2
100
AcDbEntity
  8
L-ZISSEN
100
AcDbLine
 10
593.6363513558949
 20
753.0097068399086
 30
-2.309423799016662
 11
581.6363513558949
 21
753.0097068399086
 31
-2.309423799016662
  0
LINE
  5
351
330
2
100
AcDbEntity
  8
L-ZISSEN
100
AcDbLine
 10
601.8863513558958
 20
771.189123549386
 30
-0.0000000000001013
 11
575.3863513558958
 21
771.1891235493858
 31
-0.0000000000001013
  0
LINE
  5
352
330
2
100
AcDbEntity
  8
L-ZISSEN
100
AcDbLine
 10
576.1363513558958
 20
767.3900854437093
 30
-0.0000000000001013
 11
601.1363513558956
 21
767.3900854437093
 31
-0.0000000000001013
  0
LINE
  5
353
330
2
100
AcDbEntity
  8
L-ZISSEN
100
AcDbLine
 10
576.1363513558958
 20
765.6097068399035
 30
-0.0000000000001013
 11
601.1363513558958
 21
765.6097068399035
 31
-0.0000000000001013
  0
LINE
  5
354
330
2
100
AcDbEntity
  8
L-ZISSEN
100
AcDbLine
 10
577.1363513558958
 20
764.0097068399036
 30
-0.0000000000001013
 11
600.1363513558958
 21
764.0097068399036
 31
-0.0000000000001013
  0
LINE
  5
355
330
2
100
AcDbEntity
  8
L-ZISSEN
100
AcDbLine
 10
582.6363513558949
 20
753.0097068399086
 30
0.0
 11
582.6363513558949
 21
756.5097068399086
 31
0.0
  0
LINE
  5
356
330
2
100
AcDbEntity
  8
L-ZISSEN
100
AcDbLine
 10
574.8863513558958
 20
767.7250219342481
 30
-0.0000000000001013
 11
574.8863513558958
 21
771.0551489531703
 31
-0.0000000000001013
  0
LINE
  5
357
330
2
100
AcDbEntity
  8
L-ZISSEN
100
AcDbLine
 10
576.1363513558958
 20
767.3900854437093
 30
-0.0000000000001013
 11
574.8863513558958
 21
767.7250219342481
 31
-0.0000000000001013
  0
ARC
  5
358
330
2
100
AcDbEntity
  8
L-ZISSEN
100
AcDbCircle
 10
577.1363513558957
 20
765.0097068399036
 30
-0.0000000000001013
 40
1.0
100
AcDbArc
 50
180.0
 51
270.0
  0
LINE
  5
359
330
2
100
AcDbEntity
  8
L-ZISSEN
100
AcDbLine
 10
576.1363513558958
 20
765.0097068399036
 30
-0.0000000000001013
 11
576.1363513558958
 21
765.6097068399035
 31
-0.0000000000001013
  0
LINE
  5
35A
330
2
100
AcDbEntity
  8
L-ZISSEN
100
AcDbLine
 10
576.8863513558958
 20
767.3900854437093
 30
-0.0000000000001013
 11
576.6363513558958
 21
767.3900854437093
 31
-0.0000000000001013
  0
LINE
  5
35B
330
2
100
AcDbEntity
  8
L-ZISSEN
100
AcDbLine
 10
576.8863513558958
 20
765.6097068399035
 30
-0.0000000000001013
 11
576.8863513558958
 21
767.3900854437093
 31
-0.0000000000001013
  0
LINE
  5
35C
330
2
100
AcDbEntity
  8
L-ZISSEN
100
AcDbLine
 10
575.3863513558958
 20
771.1891235493858
 30
-0.0000000000001013
 11
574.8863513558958
 21
771.0551489531703
 31
-0.0000000000001013
  0
LINE
  5
35D
330
2
100
AcDbEntity
  8
L-ZISSEN
100
AcDbLine
 10
592.6363513558949
 20
753.0097068399086
 30
0.0
 11
592.6363513558949
 21
756.5097068399086
 31
0.0
  0
LINE
  5
35E
330
2
100
AcDbEntity
  8
L-ZISSEN
100
AcDbLine
 10
602.3863513558958
 20
767.7250219342481
 30
-0.0000000000001013
 11
602.3863513558958
 21
771.0551489531703
 31
-0.0000000000001013
  0
ARC
  5
35F
330
2
100
AcDbEntity
  8
L-ZISSEN
100
AcDbCircle
 10
600.1363513558957
 20
765.0097068399036
 30
-0.0000000000001013
 40
1.0
100
AcDbArc
 50
270.0
 51
0.0
  0
LINE
  5
360
330
2
100
AcDbEntity
  8
L-ZISSEN
100
AcDbLine
 10
600.3863513558958
 20
765.6097068399035
 30
-0.0000000000001013
 11
600.3863513558958
 21
767.3900854437093
 31
-0.0000000000001013
  0
LINE
  5
361
330
2
100
AcDbEntity
  8
L-ZISSEN
100
AcDbLine
 10
600.3863513558958
 20
767.3900854437093
 30
-0.0000000000001013
 11
600.6363513558958
 21
767.3900854437093
 31
-0.0000000000001013
  0
LINE
  5
362
330
2
100
AcDbEntity
  8
L-ZISSEN
100
AcDbLine
 10
601.1363513558958
 20
765.0097068399036
 30
-0.0000000000001013
 11
601.1363513558958
 21
765.6097068399035
 31
-0.0000000000001013
  0
LINE
  5
363
330
2
100
AcDbEntity
  8
L-ZISSEN
100
AcDbLine
 10
601.1363513558958
 20
767.3900854437093
 30
-0.0000000000001013
 11
602.3863513558958
 21
767.7250219342481
 31
-0.0000000000001013
  0
LINE
  5
364
330
2
100
AcDbEntity
  8
L-ZISSEN
100
AcDbLine
 10
601.8863513558958
 20
771.189123549386
 30
-0.0000000000001013
 11
602.3863513558958
 21
771.0551489531703
 31
-0.0000000000001013
  0
LINE
  5
365
330
2
100
AcDbEntity
  8
L-ZISSEN
100
AcDbLine
 10
601.8863513558958
 20
780.3900854437093
 30
-0.0000000000001013
 11
575.3863513558958
 21
780.3900854437093
 31
-0.0000000000001013
  0
LINE
  5
366
330
2
100
AcDbEntity
  8
L-ZISSEN
100
AcDbLine
 10
601.3863513558958
 20
780.8900854437093
 30
-0.0000000000001013
 11
575.8863513558958
 21
780.8900854437093
 31
-0.0000000000001013
  0
LINE
  5
367
330
2
100
AcDbEntity
  8
L-ZISSEN
100
AcDbLine
 10
601.3863513558958
 20
782.5900854437093
 30
-0.0000000000001013
 11
575.8863513558958
 21
782.590085443709
 31
-0.0000000000001013
  0
LINE
  5
368
330
2
100
AcDbEntity
  8
L-ZISSEN
100
AcDbLine
 10
573.5551013558972
 20
784.3097068399033
 30
-0.0000000000001013
 11
603.7176013558971
 21
784.3097068399033
 31
-0.0000000000001013
  0
LINE
  5
369
330
2
100
AcDbEntity
  8
L-ZISSEN
100
AcDbLine
 10
573.5551013558972
 20
784.3097068399033
 30
-0.0000000000001013
 11
573.5551013558972
 21
797.3097068399034
 31
-0.0000000000001013
  0
LINE
  5
36A
330
2
100
AcDbEntity
  8
L-ZISSEN
100
AcDbLine
 10
575.3863513558958
 20
780.3900854437093
 30
-0.0000000000001013
 11
575.8863513558958
 21
780.8900854437093
 31
-0.0000000000001013
  0
LINE
  5
36B
330
2
100
AcDbEntity
  8
L-ZISSEN
100
AcDbLine
 10
575.8863513558958
 20
782.5900854437093
 30
-0.0000000000001013
 11
575.8863513558958
 21
780.8900854437093
 31
-0.0000000000001013
  0
LINE
  5
36C
330
2
100
AcDbEntity
  8
L-ZISSEN
100
AcDbLine
 10
578.6363513558971
 20
784.3097068399033
 30
-0.0000000000001013
 11
578.6363513558971
 21
782.590085443709
 31
-0.0000000000001013
  0
LINE
  5
36D
330
2
100
AcDbEntity
  8
L-ZISSEN
100
AcDbLine
 10
603.7176013558971
 20
784.3097068399033
 30
-0.0000000000001013
 11
603.7176013558971
 21
797.3097068399034
 31
-0.0000000000001013
  0
LINE
  5
36E
330
2
100
AcDbEntity
  8
L-ZISSEN
100
AcDbLine
 10
601.8863513558958
 20
780.3900854437093
 30
-0.0000000000001013
 11
601.3863513558958
 21
780.8900854437093
 31
-0.0000000000001013
  0
LINE
  5
36F
330
2
100
AcDbEntity
  8
L-ZISSEN
100
AcDbLine
 10
598.6363513558972
 20
784.3097068399033
 30
-0.0000000000001013
 11
598.6363513558972
 21
782.5900854437093
 31
-0.0000000000001013
  0
LINE
  5
370
330
2
100
AcDbEntity
  8
L-ZISSEN
100
AcDbLine
 10
601.3863513558958
 20
782.5900854437093
 30
-0.0000000000001013
 11
601.3863513558958
 21
780.8900854437093
 31
-0.0000000000001013
  0
LINE
  5
371
330
2
100
AcDbEntity
  8
L-ZISSEN
100
AcDbLine
 10
561.6363513558949
 20
817.3097068399025
 30
-0.0000000000001013
 11
525.6363513558949
 21
817.3097068399025
 31
-0.0000000000001013
  0
LINE
  5
372
330
2
100
AcDbEntity
  8
L-ZISSEN
100
AcDbLine
 10
561.6363513558958
 20
857.3097068399023
 30
-0.0000000000001013
 11
525.6363513558949
 21
857.3097068399023
 31
-0.0000000000001013
  0
LINE
  5
373
330
2
100
AcDbEntity
  8
L-ZISSEN
100
AcDbLine
 10
523.6363513558949
 20
855.3097068399024
 30
-0.0000000000001013
 11
523.6363513558949
 21
819.3097068399024
 31
-0.0000000000001013
  0
LINE
  5
374
330
2
100
AcDbEntity
  8
L-ZISSEN
100
AcDbLine
 10
523.6363513558949
 20
819.3097068399024
 30
-0.0000000000001013
 11
525.6363513558949
 21
817.3097068399025
 31
-0.0000000000001013
  0
LINE
  5
375
330
2
100
AcDbEntity
  8
L-ZISSEN
100
AcDbLine
 10
525.6363513558949
 20
857.3097068399023
 30
-0.0000000000001013
 11
523.6363513558949
 21
855.3097068399024
 31
-0.0000000000001013
  0
LINE
  5
376
330
2
100
AcDbEntity
  8
L-ZISSEN
100
AcDbLine
 10
531.1363513558967
 20
885.0097068399049
 30
0.0
 11
531.1363513558967
 21
874.0097068399059
 31
0.0
  0
LINE
  5
377
330
2
100
AcDbEntity
  8
L-TYUSIN
100
AcDbLine
 10
570.2363513558966
 20
835.5097068399034
 30
-0.0000000000001013
 11
570.2363513558966
 21
846.5097068399034
 31
-0.0000000000001013
  0
LINE
  5
378
330
2
100
AcDbEntity
  8
L-ZISSEN
100
AcDbLine
 10
563.636351355895
 20
812.0097068399033
 30
0.0
 11
563.6363513558949
 21
874.0097068399085
 31
0.0
  0
LINE
  5
379
330
2
100
AcDbEntity
  8
L-TYUSIN
100
AcDbLine
 10
590.6363513558949
 20
839.5297068399077
 30
0.0
 11
590.6363513558949
 21
866.4897068399078
 31
0.0
  0
CIRCLE
  5
37A
330
2
100
AcDbEntity
  8
L-ZISSEN
100
AcDbCircle
 10
590.6363513558949
 20
853.0097068399077
 30
0.0
 40
9.314999999999999
  0
CIRCLE
  5
37B
330
2
100
AcDbEntity
  8
L-ZISSEN
100
AcDbCircle
 10
590.6363513558949
 20
853.0097068399077
 30
0.0
 40
10.48
  0
CIRCLE
  5
37C
330
2
100
AcDbEntity
  8
L-ZISSEN
100
AcDbCircle
 10
570.2363513558966
 20
841.0097068399034
 30
-0.0000000000001013
 40
2.0
  0
LINE
  5
37D
330
2
100
AcDbEntity
  8
L-TYUSIN
100
AcDbLine
 10
576.5872043169824
 20
841.0097068399034
 30
-0.0000000000001013
 11
563.8854983948108
 21
841.0097068399034
 31
-0.0000000000001013
  0
POLYLINE
  5
37E
330
2
100
AcDbEntity
  8
L-ZISSEN
100
AcDb2dPolyline
 66
     1
 10
0.0
 20
0.0
 30
0.0
 70
     1
  0
VERTEX
  5
4A0
330
37E
100
AcDbEntity
  8
L-ZISSEN
100
AcDbVertex
100
AcDb2dVertex
 10
568.215625413733
 20
844.5097068399034
 30
0.0
  0
VERTEX
  5
4A1
330
37E
100
AcDbEntity
  8
L-ZISSEN
100
AcDbVertex
100
AcDb2dVertex
 10
566.1948994715692
 20
841.0097068399034
 30
0.0
  0
VERTEX
  5
4A2
330
37E
100
AcDbEntity
  8
L-ZISSEN
100
AcDbVertex
100
AcDb2dVertex
 10
568.215625413733
 20
837.5097068399034
 30
0.0
  0
VERTEX
  5
4A3
330
37E
100
AcDbEntity
  8
L-ZISSEN
100
AcDbVertex
100
AcDb2dVertex
 10
572.2570772980602
 20
837.5097068399034
 30
0.0
  0
VERTEX
  5
4A4
330
37E
100
AcDbEntity
  8
L-ZISSEN
100
AcDbVertex
100
AcDb2dVertex
 10
574.2778032402241
 20
841.0097068399034
 30
0.0
  0
VERTEX
  5
4A5
330
37E
100
AcDbEntity
  8
L-ZISSEN
100
AcDbVertex
100
AcDb2dVertex
 10
572.2570772980602
 20
844.5097068399034
 30
0.0
  0
SEQEND
  5
4A6
330
37E
100
AcDbEntity
  8
L-ZISSEN
  0
LINE
  5
37F
330
2
100
AcDbEntity
  8
L-ZISSEN
100
AcDbLine
 10
592.8213967796749
 20
809.4097068399033
 30
-0.0000000000001013
 11
570.1863513558946
 21
809.4097068399033
 31
-0.0000000000001013
  0
LINE
  5
380
330
2
100
AcDbEntity
  8
L-ZISSEN
100
AcDbLine
 10
563.636351355895
 20
812.0097068399031
 30
-0.0000000000001013
 11
544.1363513558967
 21
812.0097068399029
 31
-0.0000000000001013
  0
LINE
  5
381
330
2
100
AcDbEntity
  8
L-HASEN
 48
0.7
100
AcDbLine
 10
563.636351355895
 20
806.0097068399088
 30
0.0
 11
563.636351355895
 21
812.0097068399033
 31
0.0
  0
LINE
  5
382
330
2
100
AcDbEntity
  8
L-HASEN
 48
0.7
100
AcDbLine
 10
569.3863513558949
 20
806.0097068399084
 30
0.0
 11
563.6363513558949
 21
806.0097068399086
 31
0.0
  0
ARC
  5
383
330
2
100
AcDbEntity
  8
L-ZISSEN
100
AcDbCircle
 10
570.1863513558945
 20
808.6097068399036
 30
-0.0000000000001013
 40
0.8000000000000001
100
AcDbArc
 50
89.99999999999998
 51
180.0
  0
LINE
  5
384
330
2
100
AcDbEntity
  8
L-ZISSEN
100
AcDbLine
 10
561.6363513558949
 20
817.3097068399025
 30
-0.0000000000001013
 11
563.6363513558949
 21
819.3097068399024
 31
-0.0000000000001013
  0
LINE
  5
385
330
2
100
AcDbEntity
  8
L-ZISSEN
  6
CONTINUOUS
 62
     7
100
AcDbLine
 10
555.1363513558948
 20
817.3097068399025
 30
0.0
 11
555.1363513558948
 21
812.0097068399029
 31
0.0
  0
LINE
  5
386
330
2
100
AcDbEntity
  8
L-ZISSEN
100
AcDbLine
 10
573.8863513558958
 20
812.0097068399036
 30
-0.0000000000001013
 11
573.8863513558958
 21
809.4097068399033
 31
-0.0000000000001013
  0
LINE
  5
387
330
2
100
AcDbEntity
  8
L-ZISSEN
100
AcDbLine
 10
592.8213967796759
 20
806.0097068399032
 30
-0.0000000000001013
 11
592.8213967796741
 21
812.0097068399033
 31
-0.0000000000001013
  0
LINE
  5
388
330
2
100
AcDbEntity
  8
L-ZISSEN
100
AcDbLine
 10
592.8213967796759
 20
806.0097068399032
 30
-0.0000000000001013
 11
594.4534446537813
 21
805.0674435604584
 31
-0.0000000000001013
  0
ELLIPSE
  5
389
330
2
100
AcDbEntity
  8
L-ZISSEN
100
AcDbEllipse
 10
595.2751354237311
 20
806.0097068399032
 30
-0.0000000000001013
 11
2.453738644090794
 21
-0.0000000000053962
 31
0.0
210
0.0
220
0.0
230
-1.0
 40
0.4075413664810008
 41
1.570796326793629
 42
1.912266749739858
  0
LINE
  5
38A
330
2
100
AcDbEntity
  8
L-ZISSEN
  6
CONTINUOUS
 62
     7
100
AcDbLine
 10
555.1363513558948
 20
874.0097068399085
 30
0.0
 11
555.1363513558948
 21
857.3097068399023
 31
0.0
  0
LINE
  5
38B
330
2
100
AcDbEntity
  8
L-ZISSEN
100
AcDbLine
 10
563.6363513558949
 20
855.3097068399024
 30
-0.0000000000001013
 11
561.6363513558958
 21
857.3097068399023
 31
-0.0000000000001013
  0
LINE
  5
38C
330
2
100
AcDbEntity
  8
L-ZISSEN
100
AcDbLine
 10
561.6363513558958
 20
857.3097068399023
 30
-0.0000000000001013
 11
561.6363513558958
 21
857.3697068399008
 31
-0.0000000000001013
  0
LINE
  5
38D
330
2
100
AcDbEntity
  8
L-TYUSIN
100
AcDbLine
 10
553.6363513558967
 20
888.0097068399077
 30
0.0
 11
553.6363513558967
 21
879.7097068399075
 31
0.0
  0
LINE
  5
38E
330
2
100
AcDbEntity
  8
L-ZISSEN
100
AcDbLine
 10
687.1363513558949
 20
773.0097068399071
 30
-0.6084123218692465
 11
687.1363513558949
 21
814.0097068399068
 31
-0.6084123218692465
  0
LINE
  5
38F
330
2
100
AcDbEntity
  8
L-ZISSEN
100
AcDbLine
 10
729.0863513558957
 20
846.7597068399077
 30
0.0
 11
729.0863513558957
 21
779.2597068399077
 31
0.0
  0
LINE
  5
390
330
2
100
AcDbEntity
  8
L-ZISSEN
100
AcDbLine
 10
655.1363513558949
 20
773.0097068399071
 30
-0.6084123218692465
 11
655.1363513558949
 21
802.0097068399071
 31
-0.6084123218692465
  0
LINE
  5
391
330
2
100
AcDbEntity
  8
L-ZISSEN
100
AcDbLine
 10
653.6363513558949
 20
773.0097068399071
 30
-0.6084123218692465
 11
653.6363513558949
 21
802.0097068399071
 31
-0.6084123218692465
  0
LINE
  5
392
330
2
100
AcDbEntity
  8
L-ZISSEN
100
AcDbLine
 10
655.1363513558949
 20
773.0097068399071
 30
-0.6084123218692465
 11
655.1363513558949
 21
802.0097068399071
 31
-0.6084123218692465
  0
LINE
  5
393
330
2
100
AcDbEntity
  8
L-ZISSEN
100
AcDbLine
 10
653.6363513558949
 20
802.0097068399071
 30
-0.6084123218692465
 11
653.6363513558949
 21
773.0097068399071
 31
-0.6084123218692465
  0
LINE
  5
394
330
2
100
AcDbEntity
  8
L-ZISSEN
100
AcDbLine
 10
645.6363513558906
 20
771.5097068399073
 30
0.0
 11
645.6363513558919
 21
802.0097068399071
 31
0.0
  0
LINE
  5
395
330
2
100
AcDbEntity
  8
L-TYUSIN
 48
0.5
100
AcDbLine
 10
700.3363513558956
 20
754.2645501658494
 30
0.0
 11
700.3363513558956
 21
872.0372673885863
 31
0.0
  0
LINE
  5
396
330
2
100
AcDbEntity
  8
L-ZISSEN
100
AcDbLine
 10
608.1363513558967
 20
791.009706839904
 30
0.0
 11
608.1363513558967
 21
805.009706839904
 31
0.0
  0
LINE
  5
397
330
2
100
AcDbEntity
  8
L-ZISSEN
100
AcDbLine
 10
607.8863513558972
 20
797.3097068399034
 30
-0.0000000000001013
 11
607.8863513558972
 21
805.009706839904
 31
-0.0000000000001013
  0
LINE
  5
398
330
2
100
AcDbEntity
  8
L-ZISSEN
100
AcDbLine
 10
608.1363513558967
 20
791.009706839904
 30
0.0
 11
608.1363513558967
 21
803.5097068399073
 31
0.0
  0
LINE
  5
399
330
2
100
AcDbEntity
  8
L-ZISSEN
100
AcDbLine
 10
608.1363513558949
 20
803.5097068399085
 30
0.0
 11
608.1363513558949
 21
762.5097068399086
 31
0.0
  0
LINE
  5
39A
330
2
100
AcDbEntity
  8
L-ZISSEN
100
AcDbLine
 10
613.6363513558985
 20
762.5097068399077
 30
-0.6084123218692526
 11
613.6363513558985
 21
803.5097068399077
 31
-0.6084123218692526
  0
LINE
  5
39B
330
2
100
AcDbEntity
  8
L-ZISSEN
100
AcDbLine
 10
613.936351355896
 20
771.5097068399071
 30
-0.6084123218692465
 11
613.9363513558942
 21
813.0097068399072
 31
-0.6084123218692465
  0
LINE
  5
39C
330
2
100
AcDbEntity
  8
L-ZISSEN
100
AcDbLine
 10
613.6363513558972
 20
791.1656816688759
 30
0.0
 11
613.6363513558949
 21
874.0097068399085
 31
0.0
  0
LINE
  5
39D
330
2
100
AcDbEntity
  8
L-ZISSEN
100
AcDbLine
 10
665.898014395189
 20
738.0097068399086
 30
0.0
 11
671.6363513558949
 21
738.0097068399086
 31
0.0
  0
LINE
  5
39E
330
2
100
AcDbEntity
  8
L-ZISSEN
100
AcDbLine
 10
653.2191138861954
 20
738.0097068399086
 30
0.0
 11
671.6363513558949
 21
738.0097068399086
 31
0.0
  0
LINE
  5
39F
330
2
100
AcDbEntity
  8
L-ZISSEN
100
AcDbLine
 10
660.9927578164469
 20
733.0097068399086
 30
0.0
 11
671.1363513558949
 21
733.0097068399086
 31
0.0
  0
LINE
  5
3A0
330
2
100
AcDbEntity
  8
L-ZISSEN
100
AcDbLine
 10
649.1363513558949
 20
773.0097068399071
 30
-0.6084123218692465
 11
687.1363513558949
 21
773.0097068399071
 31
-0.6084123218692465
  0
LINE
  5
3A1
330
2
100
AcDbEntity
  8
L-TYUSIN
100
AcDbLine
 10
623.1363513558949
 20
720.0097068399095
 30
0.0
 11
671.1363513558949
 21
720.0097068399095
 31
0.0
  0
LINE
  5
3A2
330
2
100
AcDbEntity
  8
L-ZISSEN
100
AcDbLine
 10
622.6363513558953
 20
738.0097068399086
 30
0.0
 11
622.6363513558949
 21
752.0097068399086
 31
0.0
  0
ARC
  5
3A3
330
2
100
AcDbEntity
  8
L-ZISSEN
100
AcDbCircle
 10
640.8363513558956
 20
758.5097068399077
 30
0.0
 40
5.799999999999999
100
AcDbArc
 50
180.0
 51
270.0
  0
ARC
  5
3A4
330
2
100
AcDbEntity
  8
L-ZISSEN
  6
CONTINUOUS
 62
     7
100
AcDbCircle
 10
615.6363513558949
 20
754.0097068399086
 30
0.0
 40
2.0
100
AcDbArc
 50
180.0
 51
270.0
  0
LINE
  5
3A5
330
2
100
AcDbEntity
  8
L-ZISSEN
100
AcDbLine
 10
622.6363513558953
 20
738.0097068399086
 30
0.0
 11
641.0535888255944
 21
738.0097068399086
 31
0.0
  0
LINE
  5
3A6
330
2
100
AcDbEntity
  8
L-ZISSEN
100
AcDbLine
 10
630.1363513558949
 20
728.4949882141477
 30
0.0
 11
630.1363513558949
 21
733.0097068399086
 31
0.0
  0
LINE
  5
3A7
330
2
100
AcDbEntity
  8
L-ZISSEN
100
AcDbLine
 10
605.6363513558949
 20
725.0097068399086
 30
-2.309423799016662
 11
605.6363513558949
 21
747.0097068399086
 31
-2.309423799016662
  0
LINE
  5
3A8
330
2
100
AcDbEntity
  8
L-ZISSEN
100
AcDbLine
 10
622.6363513558949
 20
738.0097068399086
 30
0.0
 11
628.3746883166013
 21
738.0097068399086
 31
0.0
  0
LINE
  5
3A9
330
2
100
AcDbEntity
  8
L-ZISSEN
100
AcDbLine
 10
623.1363513558949
 20
733.0097068399086
 30
0.0
 11
633.2799448953433
 21
733.0097068399086
 31
0.0
  0
LINE
  5
3AA
330
2
100
AcDbEntity
  8
L-ZISSEN
100
AcDbLine
 10
622.6363513558949
 20
738.0097068399086
 30
0.0
 11
622.6363513558949
 21
733.5097068399086
 31
0.0
  0
ARC
  5
3AB
330
2
100
AcDbEntity
  8
L-ZISSEN
100
AcDbCircle
 10
623.1363513558949
 20
733.5097068399086
 30
0.0
 40
0.5
100
AcDbArc
 50
180.0
 51
270.0
  0
LINE
  5
3AC
330
2
100
AcDbEntity
  8
L-ZISSEN
100
AcDbLine
 10
664.1363513558953
 20
728.4949882141477
 30
0.0
 11
664.1363513558953
 21
733.0097068399086
 31
0.0
  0
LINE
  5
3AD
330
2
100
AcDbEntity
  8
L-ZISSEN
100
AcDbLine
 10
613.9363513558951
 20
771.5097068399071
 30
-0.6084123218692465
 11
645.3363513558956
 21
771.5097068399071
 31
-0.6084123218692465
  0
LINE
  5
3AE
330
2
100
AcDbEntity
  8
L-ZISSEN
100
AcDbLine
 10
615.0910518942741
 20
769.5097068399071
 30
-0.6084123218692465
 11
644.1816508175157
 21
769.5097068399071
 31
-0.6084123218692465
  0
LINE
  5
3AF
330
2
100
AcDbEntity
  8
L-ZISSEN
100
AcDbLine
 10
613.9363513558951
 20
776.0097068399071
 30
-0.6084123218692465
 11
649.1363513558949
 21
776.0097068399071
 31
-0.6084123218692465
  0
ARC
  5
3B0
330
2
100
AcDbEntity
  8
L-ZISSEN
100
AcDbCircle
 10
611.6363513558949
 20
754.5097068399086
 30
0.0
 40
2.0
100
AcDbArc
 50
0.0
 51
90.0
  0
LINE
  5
3B1
330
2
100
AcDbEntity
  8
L-ZISSEN
  6
CONTINUOUS
 62
     7
100
AcDbLine
 10
613.6363513558949
 20
754.5097068399086
 30
0.0
 11
613.6363513558949
 21
754.0097068399086
 31
0.0
  0
LINE
  5
3B2
330
2
100
AcDbEntity
  8
L-ZISSEN
100
AcDbLine
 10
613.936351355896
 20
771.5097068399071
 30
-0.6084123218692465
 11
615.0910518942741
 21
769.5097068399071
 31
-0.6084123218692465
  0
LINE
  5
3B3
330
2
100
AcDbEntity
  8
L-ZISSEN
100
AcDbLine
 10
635.0363513558956
 20
758.5097068399077
 30
0.0
 11
635.0363513558958
 21
762.5097068399041
 31
0.0
  0
LINE
  5
3B4
330
2
100
AcDbEntity
  8
L-ZISSEN
100
AcDbLine
 10
649.1363513558949
 20
773.0097068399071
 30
-0.6084123218692465
 11
649.1363513558949
 21
776.0097068399071
 31
-0.6084123218692465
  0
LINE
  5
3B5
330
2
100
AcDbEntity
  8
L-ZISSEN
100
AcDbLine
 10
645.3363513558956
 20
771.5097068399071
 30
-0.6084123218692465
 11
645.3363513558956
 21
776.0097068399071
 31
-0.6084123218692465
  0
ARC
  5
3B6
330
2
100
AcDbEntity
  8
L-ZISSEN
100
AcDbCircle
 10
645.5478831721352
 20
763.2212386561473
 30
0.0
 40
5.0
100
AcDbArc
 50
188.1813276056155
 51
270.0
  0
LINE
  5
3B7
330
2
100
AcDbEntity
  8
L-ZISSEN
100
AcDbLine
 10
645.3363513558956
 20
771.5097068399071
 30
-0.6084123218692465
 11
644.1816508175157
 21
769.5097068399071
 31
-0.6084123218692465
  0
LINE
  5
3B8
330
2
100
AcDbEntity
  8
L-ZISSEN
100
AcDbLine
 10
671.6363513558949
 20
738.0097068399086
 30
0.0
 11
671.6363513558949
 21
752.0097068399086
 31
0.0
  0
LINE
  5
3B9
330
2
100
AcDbEntity
  8
L-ZISSEN
100
AcDbLine
 10
671.6363513558949
 20
738.0097068399086
 30
0.0
 11
671.6363513558949
 21
733.5097068399086
 31
0.0
  0
ARC
  5
3BA
330
2
100
AcDbEntity
  8
L-ZISSEN
100
AcDbCircle
 10
671.1363513558949
 20
733.5097068399086
 30
0.0
 40
0.5
100
AcDbArc
 50
270.0
 51
0.0
  0
CIRCLE
  5
3BB
330
2
100
AcDbEntity
  8
L-ZISSEN
100
AcDbCircle
 10
700.3363513558956
 20
769.0097068399077
 30
0.0
 40
3.149999999999999
  0
CIRCLE
  5
3BC
330
2
100
AcDbEntity
  8
L-ZISSEN
100
AcDbCircle
 10
700.3363513558956
 20
769.0097068399077
 30
0.0
 40
5.0
  0
LINE
  5
3BD
330
2
100
AcDbEntity
  8
L-ZISSEN
100
AcDbLine
 10
688.6363513558962
 20
779.2597068399076
 30
0.0
 11
729.0863513558957
 21
779.2597068399077
 31
0.0
  0
LINE
  5
3BE
330
2
100
AcDbEntity
  8
L-TYUSIN
 48
0.5
100
AcDbLine
 10
709.1940619408919
 20
769.0097068399077
 30
0.0
 11
691.4786407708993
 21
769.0097068399077
 31
0.0
  0
CIRCLE
  5
3BF
330
2
100
AcDbEntity
  8
L-ZISSEN
100
AcDbCircle
 10
700.3363513558956
 20
769.0097068399077
 30
0.0
 40
1.8
  0
LINE
  5
3C0
330
2
100
AcDbEntity
  8
L-ZISSEN
100
AcDbLine
 10
668.1363513558949
 20
874.0097068399085
 30
0.0
 11
673.1363513558949
 21
874.0097068399085
 31
0.0
  0
LINE
  5
3C1
330
2
100
AcDbEntity
  8
L-ZISSEN
100
AcDbLine
 10
661.5863513558956
 20
846.7597068399077
 30
0.0
 11
729.0863513558957
 21
846.7597068399077
 31
0.0
  0
LINE
  5
3C2
330
2
100
AcDbEntity
  8
L-ZISSEN
100
AcDbLine
 10
687.1363513558949
 20
824.0097068399073
 30
-0.6084123218692465
 11
669.1363513558949
 21
824.0097068399073
 31
-0.6084123218692465
  0
LINE
  5
3C3
330
2
100
AcDbEntity
  8
L-ZISSEN
100
AcDbLine
 10
687.1363513558949
 20
818.8097068399072
 30
-0.6084123218692465
 11
669.1363513558949
 21
818.8097068399072
 31
-0.6084123218692465
  0
LINE
  5
3C4
330
2
100
AcDbEntity
  8
L-ZISSEN
100
AcDbLine
 10
687.1363513558949
 20
814.0097068399068
 30
-0.6084123218692465
 11
669.1363513558949
 21
814.0097068399068
 31
-0.6084123218692465
  0
LINE
  5
3C5
330
2
100
AcDbEntity
  8
L-ZISSEN
100
AcDbLine
 10
613.9363513558942
 20
802.0097068399071
 30
-0.6084123218692465
 11
687.1363513558949
 21
802.0097068399071
 31
-0.6084123218692465
  0
LINE
  5
3C6
330
2
100
AcDbEntity
  8
L-ZISSEN
100
AcDbLine
 10
661.5863513558956
 20
846.7597068399077
 30
0.0
 11
661.5863513558961
 21
802.0097068399072
 31
0.0
  0
LINE
  5
3C7
330
2
100
AcDbEntity
  8
L-ZISSEN
100
AcDbLine
 10
645.6363513558925
 20
813.0097068399072
 30
0.0
 11
645.6363513558949
 21
870.009706839907
 31
0.0
  0
LINE
  5
3C8
330
2
100
AcDbEntity
  8
L-ZISSEN
100
AcDbLine
 10
613.6363513558949
 20
813.0097068399072
 30
-0.6084123218692465
 11
645.6363513558954
 21
813.009706839907
 31
-0.6084123218692465
  0
LINE
  5
3C9
330
2
100
AcDbEntity
  8
L-ZISSEN
100
AcDbLine
 10
613.6363513558949
 20
833.0097068399071
 30
-0.6084123218692465
 11
645.6363513558949
 21
833.0097068399071
 31
-0.6084123218692465
  0
LINE
  5
3CA
330
2
100
AcDbEntity
  8
L-ZISSEN
100
AcDbLine
 10
612.451305932123
 20
806.0097068399032
 30
-0.0000000000001013
 11
612.451305932123
 21
812.0097068399033
 31
-0.0000000000001013
  0
LINE
  5
3CB
330
2
100
AcDbEntity
  8
L-ZISSEN
100
AcDbLine
 10
613.9363513558942
 20
802.0097068399071
 30
-0.6084123218692465
 11
613.9363513558942
 21
813.0097068399072
 31
-0.6084123218692465
  0
LINE
  5
3CC
330
2
100
AcDbEntity
  8
L-ZISSEN
100
AcDbLine
 10
612.451305932123
 20
806.0097068399032
 30
-0.0000000000001013
 11
610.8192580580158
 21
805.0674435604584
 31
-0.0000000000001013
  0
LINE
  5
3CD
330
2
100
AcDbEntity
  8
L-ZISSEN
100
AcDbLine
 10
608.1363513558967
 20
803.5097068399073
 30
0.0
 11
613.6363513558949
 21
803.5097068399077
 31
0.0
  0
ELLIPSE
  5
3CE
330
2
100
AcDbEntity
  8
L-ZISSEN
100
AcDbEllipse
 10
609.997567288066
 20
806.0097068399032
 30
-0.0000000000001013
 11
2.453738644089471
 21
0.0000000000052847
 31
0.0
210
0.0
220
0.0
230
1.0
 40
0.4075413664812205
 41
-1.570796326795774
 42
-1.229325903849909
  0
LINE
  5
3CF
330
2
100
AcDbEntity
  8
L-ZISSEN
  6
CONTINUOUS
 62
     7
100
AcDbLine
 10
613.6363513558968
 20
806.0097068399086
 30
0.0
 11
612.4513059321322
 21
806.0097068399086
 31
0.0
  0
LINE
  5
3D0
330
2
100
AcDbEntity
  8
L-ZISSEN
100
AcDbLine
 10
669.1363513558949
 20
818.8097068399072
 30
-0.6084123218692465
 11
669.1363513558949
 21
824.0097068399073
 31
-0.6084123218692465
  0
LINE
  5
3D1
330
2
100
AcDbEntity
  8
L-ZISSEN
100
AcDbLine
 10
645.3363513558947
 20
802.0097068399071
 30
-0.6084123218692465
 11
645.3363513558953
 21
813.0097068399072
 31
-0.6084123218692465
  0
LINE
  5
3D2
330
2
100
AcDbEntity
  8
L-ZISSEN
100
AcDbLine
 10
645.6363513558949
 20
805.2097068399117
 30
-0.6084123218692465
 11
645.6363513558949
 21
810.409706839902
 31
-0.6084123218692465
  0
LINE
  5
3D3
330
2
100
AcDbEntity
  8
L-ZISSEN
100
AcDbLine
 10
645.6363513558949
 20
805.2097068399117
 30
-0.6084123218692465
 11
645.3363513558949
 21
805.2097068399117
 31
-0.6084123218692465
  0
LINE
  5
3D4
330
2
100
AcDbEntity
  8
L-ZISSEN
100
AcDbLine
 10
645.6363513558949
 20
810.409706839902
 30
-0.6084123218692465
 11
645.3363513558949
 21
810.409706839902
 31
-0.6084123218692465
  0
LINE
  5
3D5
330
2
100
AcDbEntity
  8
L-ZISSEN
100
AcDbLine
 10
669.1363513558949
 20
802.0097068399071
 30
-0.6084123218692465
 11
669.1363513558949
 21
814.0097068399068
 31
-0.6084123218692465
  0
ARC
  5
3D6
330
2
100
AcDbEntity
  8
L-ZISSEN
100
AcDbCircle
 10
640.8363513558956
 20
867.5097068399095
 30
0.0
 40
5.799999999999999
100
AcDbArc
 50
90.00000000000003
 51
154.4667710559485
  0
LINE
  5
3D7
330
2
100
AcDbEntity
  8
L-ZISSEN
100
AcDbLine
 10
645.6363513558949
 20
870.009706839907
 30
0.0
 11
613.6363513558949
 21
870.009706839907
 31
0.0
  0
LINE
  5
3D8
330
2
100
AcDbEntity
  8
L-ZISSEN
100
AcDbLine
 10
687.1363513558949
 20
818.8097068399072
 30
-0.6084123218692465
 11
687.1363513558949
 21
824.0097068399073
 31
-0.6084123218692465
  0
LINE
  5
3D9
330
2
100
AcDbEntity
  8
L-ZISSEN
100
AcDbLine
 10
671.2363513558948
 20
818.8097068399072
 30
-0.6084123218692465
 11
671.2363513558948
 21
814.0097068399068
 31
-0.6084123218692465
  0
LINE
  5
3DA
330
2
100
AcDbEntity
  8
L-ZISSEN
100
AcDbLine
 10
685.036351355895
 20
818.8097068399072
 30
-0.6084123218692465
 11
685.036351355895
 21
814.0097068399068
 31
-0.6084123218692465
  0
CIRCLE
  5
3DB
330
2
100
AcDbEntity
  8
L-ZISSEN
100
AcDbCircle
 10
700.3363513558956
 20
857.0097068399077
 30
0.0
 40
3.149999999999999
  0
LINE
  5
3DC
330
2
100
AcDbEntity
  8
L-TYUSIN
 48
0.5
100
AcDbLine
 10
709.1940619408919
 20
857.0097068399077
 30
0.0
 11
691.4786407708993
 21
857.0097068399077
 31
0.0
  0
CIRCLE
  5
3DD
330
2
100
AcDbEntity
  8
L-ZISSEN
100
AcDbCircle
 10
700.3363513558956
 20
857.0097068399077
 30
0.0
 40
5.0
  0
CIRCLE
  5
3DE
330
2
100
AcDbEntity
  8
L-ZISSEN
100
AcDbCircle
 10
700.3363513558956
 20
857.0097068399077
 30
0.0
 40
1.8
  0
LINE
  5
3DF
330
2
100
AcDbEntity
  8
L-TYUSIN
100
AcDbLine
 10
728.6363513558967
 20
888.0097068399077
 30
0.0
 11
728.6363513558967
 21
878.8097068399078
 31
0.0
  0
LINE
  5
3E0
330
2
100
AcDbEntity
  8
L-ZISSEN
  6
CONTINUOUS
 62
     7
100
AcDbLine
 10
742.136351355895
 20
327.3994182034098
 30
0.0
 11
742.1363513558949
 21
363.3994182034098
 31
0.0
  0
LINE
  5
3E1
330
2
100
AcDbEntity
  8
L-ZISSEN
  6
CONTINUOUS
 62
     7
100
AcDbLine
 10
755.1363513558948
 20
321.3994182034102
 30
0.0
 11
755.1363513558949
 21
364.3994182034098
 31
0.0
  0
LINE
  5
3E2
330
2
100
AcDbEntity
  8
L-HASEN
100
AcDbLine
 10
751.1363513558968
 20
317.5995589793056
 30
0.0
 11
751.1363513558968
 21
446.3994182034098
 31
0.0
  0
LINE
  5
3E3
330
2
100
AcDbEntity
  8
L-TYUSIN
100
AcDbLine
 10
738.1363513558967
 20
295.4364939381807
 30
0.0
 11
738.1363513558967
 21
282.3623424686397
 31
0.0
  0
LINE
  5
3E4
330
2
100
AcDbEntity
  8
L-ZISSEN
100
AcDbLine
 10
751.1363513558968
 20
282.3994182034107
 30
0.0
 11
751.1363513558968
 21
317.5995589793056
 31
0.0
  0
ARC
  5
3E5
330
2
100
AcDbEntity
  8
L-ZISSEN
100
AcDbCircle
 10
748.1363513558967
 20
282.3994182034107
 30
0.0
 40
3.0
100
AcDbArc
 50
270.0000000000002
 51
0.0
  0
LINE
  5
3E6
330
2
100
AcDbEntity
  8
L-ZISSEN
100
AcDbLine
 10
749.6600807419431
 20
307.699558979305
 30
0.0
 11
749.6600807419431
 21
317.5995589793046
 31
0.0
  0
LINE
  5
3E7
330
2
100
AcDbEntity
  8
L-TYUSIN
100
AcDbLine
 10
738.6600807419431
 20
321.3995589793043
 30
0.0
 11
738.6600807419431
 21
303.8883363740951
 31
0.0
  0
LINE
  5
3E8
330
2
100
AcDbEntity
  8
L-ZISSEN
100
AcDbLine
 10
753.1600807419431
 20
321.3995589793048
 30
0.0
 11
753.1600807419431
 21
317.5995589793046
 31
0.0
  0
LINE
  5
3E9
330
2
100
AcDbEntity
  8
L-ZISSEN
100
AcDbLine
 10
755.1363513558949
 20
371.7736946028467
 30
0.0
 11
750.3731443798547
 21
462.661097984625
 31
0.0
  0
LINE
  5
3EA
330
2
100
AcDbEntity
  8
L-ZISSEN
  6
CONTINUOUS
 62
     7
100
AcDbLine
 10
755.1363513558949
 20
358.2183064816922
 30
0.0
 11
755.1363513558949
 21
370.8994182034116
 31
0.0
  0
LINE
  5
3EB
330
2
100
AcDbEntity
  8
L-ZISSEN
  6
CONTINUOUS
 62
     7
100
AcDbLine
 10
755.1363513558949
 20
358.2183064816922
 30
0.0
 11
755.1363513558949
 21
370.8994182034116
 31
0.0
  0
LINE
  5
3EC
330
2
100
AcDbEntity
  8
L-ZISSEN
100
AcDbLine
 10
755.1363513558949
 20
370.8994182034116
 30
0.0
 11
755.1363513558949
 21
371.7736946028458
 31
0.0
  0
LINE
  5
3ED
330
2
100
AcDbEntity
  8
L-ZISSEN
100
AcDbLine
 10
755.1363513558949
 20
370.8994182034116
 30
0.0
 11
755.1363513558949
 21
371.7736946028458
 31
0.0
  0
ARC
  5
3EE
330
2
100
AcDbEntity
  8
L-HASEN
100
AcDbCircle
 10
748.1363513558967
 20
446.3994182034098
 30
0.0
 40
3.0
100
AcDbArc
 50
0.0
 51
89.99999999999998
  0
LINE
  5
3EF
330
2
100
AcDbEntity
  8
L-TYUSIN
100
AcDbLine
 10
738.1363513558967
 20
445.4364939381807
 30
0.0
 11
738.1363513558967
 21
432.3623424686397
 31
0.0
  0
LINE
  5
3F0
330
2
100
AcDbEntity
  8
L-ZISSEN
100
AcDbLine
 10
751.0681595667515
 20
449.3994182034107
 30
0.0
 11
751.1363513558968
 21
449.3994182034107
 31
0.0
  0
ARC
  5
3F1
330
2
100
AcDbEntity
  8
L-ZISSEN
100
AcDbCircle
 10
745.3799967060818
 20
462.3994182034098
 30
0.0
 40
5.0
100
AcDbArc
 50
3.000000000005585
 51
90.0
  0
LINE
  5
3F2
330
2
100
AcDbEntity
  8
L-ZISSEN
100
AcDbLine
 10
755.6363513558949
 20
867.5097068399077
 30
0.0
 11
755.6363513558949
 21
758.5097068399077
 31
0.0
  0
LINE
  5
3F3
330
2
100
AcDbEntity
  8
L-ZISSEN
100
AcDbLine
 10
750.124819539656
 20
862.7981750236681
 30
0.0
 11
750.124819539656
 21
763.2212386561473
 31
0.0
  0
ARC
  5
3F4
330
2
100
AcDbEntity
  8
L-ZISSEN
  6
CONTINUOUS
 62
     7
100
AcDbCircle
 10
752.1363513558949
 20
755.0097068399086
 30
0.0
 40
3.0
100
AcDbArc
 50
270.0
 51
0.0
  0
ARC
  5
3F5
330
2
100
AcDbEntity
  8
L-ZISSEN
100
AcDbCircle
 10
749.8363513558956
 20
758.5097068399077
 30
0.0
 40
5.799999999999999
100
AcDbArc
 50
270.0
 51
0.0
  0
LINE
  5
3F6
330
2
100
AcDbEntity
  8
L-TYUSIN
 48
0.5
100
AcDbLine
 10
739.1363513558949
 20
753.9911763335298
 30
0.0
 11
739.1363513558949
 21
782.0282373462864
 31
0.0
  0
ARC
  5
3F7
330
2
100
AcDbEntity
  8
L-ZISSEN
100
AcDbCircle
 10
745.124819539656
 20
763.2212386561473
 30
0.0
 40
5.0
100
AcDbArc
 50
270.0
 51
0.0
  0
LINE
  5
3F8
330
2
100
AcDbEntity
  8
L-ZISSEN
  6
CONTINUOUS
 62
     7
100
AcDbLine
 10
755.1363513558949
 20
755.0097068399086
 30
0.0
 11
755.1363513558949
 21
756.1538630420296
 31
0.0
  0
ARC
  5
3F9
330
2
100
AcDbEntity
  8
L-ZISSEN
100
AcDbCircle
 10
745.124819539656
 20
862.7981750236681
 30
0.0
 40
5.0
100
AcDbArc
 50
0.0
 51
90.0
  0
ARC
  5
3FA
330
2
100
AcDbEntity
  8
L-ZISSEN
100
AcDbCircle
 10
749.8363513558956
 20
867.5097068399077
 30
0.0
 40
5.799999999999999
100
AcDbArc
 50
0.0
 51
90.0
  0
LINE
  5
3FB
330
2
100
AcDbEntity
  8
L-ZISSEN
100
AcDbLine
 10
751.1363513558968
 20
885.0097068399078
 30
0.0
 11
751.1363513558968
 21
874.0097068399077
 31
0.0
  0
ARC
  5
3FC
330
2
100
AcDbEntity
  8
L-ZISSEN
  6
CONTINUOUS
 62
     7
100
AcDbCircle
 10
752.1363513558949
 20
871.0097068399077
 30
0.0
 40
3.0
100
AcDbArc
 50
0.0
 51
90.0
  0
LINE
  5
3FD
330
2
100
AcDbEntity
  8
L-ZISSEN
  6
CONTINUOUS
 62
     7
100
AcDbLine
 10
755.1363513558949
 20
869.8655506377868
 30
0.0
 11
755.1363513558949
 21
871.0097068399077
 31
0.0
  0
LINE
  5
3FE
330
2
100
AcDbEntity
  8
L-ZISSEN
100
AcDbLine
 10
312.6213508187293
 20
391.37597374041
 30
3.059709237761383
 11
308.8637735888942
 21
463.0748184776186
 31
3.059709237761383
  0
LINE
  5
3FF
330
2
100
AcDbEntity
  8
L-TYUSIN
 48
0.5
100
AcDbLine
 10
283.8269805649352
 20
416.8994668574607
 30
3.905493996131585
 11
244.326980564937
 21
416.8994668574607
 31
3.905493996131585
  0
ARC
  5
400
330
2
100
AcDbEntity
  8
L-ZISSEN
100
AcDbCircle
 10
275.826480564935
 20
409.899218203411
 30
0.4136332104836598
 40
2.0
100
AcDbArc
 50
90.0
 51
180.0
  0
LINE
  5
401
330
2
100
AcDbEntity
  8
L-TYUSIN
100
AcDbLine
 10
285.205480564934
 20
416.8997182034111
 30
0.4136332104836598
 11
271.5554805649344
 21
416.8997182034111
 31
0.4136332104836598
  0
LINE
  5
402
330
2
100
AcDbEntity
  8
L-ZISSEN
100
AcDbLine
 10
279.5144805649351
 20
412.8587182034109
 30
0.4136332104836598
 11
272.6394805649352
 21
412.8587182034109
 31
0.4136332104836598
  0
LINE
  5
403
330
2
100
AcDbEntity
  8
L-ZISSEN
100
AcDbLine
 10
279.5144805649351
 20
418.9207182034108
 30
0.4136332104836598
 11
272.6394805649352
 21
418.9207182034108
 31
0.4136332104836598
  0
LINE
  5
404
330
2
100
AcDbEntity
  8
L-ZISSEN
100
AcDbLine
 10
279.5144805649351
 20
414.8787182034104
 30
0.4136332104836598
 11
272.6394805649352
 21
414.8787182034104
 31
0.4136332104836598
  0
LINE
  5
405
330
2
100
AcDbEntity
  8
L-ZISSEN
100
AcDbLine
 10
279.5144805649351
 20
420.9407182034103
 30
0.4136332104836598
 11
272.6394805649352
 21
420.9407182034103
 31
0.4136332104836598
  0
LINE
  5
406
330
2
100
AcDbEntity
  8
L-ZISSEN
100
AcDbLine
 10
263.326480564935
 20
387.0992182034108
 30
0.4136332104836598
 11
304.326480564935
 21
387.0992182034108
 31
0.4136332104836598
  0
LINE
  5
407
330
2
100
AcDbEntity
  8
L-ZISSEN
100
AcDbLine
 10
304.326480564935
 20
384.399218203411
 30
0.4136332104836598
 11
263.326480564935
 21
384.399218203411
 31
0.4136332104836598
  0
LINE
  5
408
330
2
100
AcDbEntity
  8
L-ZISSEN
100
AcDbLine
 10
263.326480564935
 20
384.399218203411
 30
0.4136332104836598
 11
263.326480564935
 21
371.8994182034105
 31
0.4136332104836598
  0
LINE
  5
409
330
2
100
AcDbEntity
  8
L-ZISSEN
100
AcDbLine
 10
273.826480564935
 20
409.899218203411
 30
0.4136332104836598
 11
273.826480564935
 21
387.5992182034108
 31
0.4136332104836598
  0
LINE
  5
40A
330
2
100
AcDbEntity
  8
L-ZISSEN
100
AcDbLine
 10
263.326480564935
 20
384.399218203411
 30
0.4136332104836598
 11
263.326480564935
 21
387.0992182034108
 31
0.4136332104836598
  0
ARC
  5
40B
330
2
100
AcDbEntity
  8
L-ZISSEN
100
AcDbCircle
 10
273.326480564935
 20
387.5992182034108
 30
0.4136332104836598
 40
0.5
100
AcDbArc
 50
270.0
 51
0.0
  0
LINE
  5
40C
330
2
100
AcDbEntity
  8
L-ZISSEN
100
AcDbLine
 10
273.326480564935
 20
387.0992182034108
 30
0.4136332104836598
 11
271.826480564935
 21
387.0992182034108
 31
0.4136332104836598
  0
LINE
  5
40D
330
2
100
AcDbEntity
  8
L-ZISSEN
100
AcDbLine
 10
272.326480564935
 20
413.8687182034111
 30
0.4136332104836598
 11
272.326480564935
 21
419.930718203411
 31
0.4136332104836598
  0
ARC
  5
40E
330
2
100
AcDbEntity
  8
L-ZISSEN
100
AcDbCircle
 10
279.0144805649351
 20
416.8997182034111
 30
0.4136332104836598
 40
6.687389999999999
100
AcDbArc
 50
162.4119999999983
 51
197.5880000000016
  0
LINE
  5
40F
330
2
100
AcDbEntity
  8
L-ZISSEN
100
AcDbLine
 10
261.3269805649351
 20
413.8687182034111
 30
0.4136332104836598
 11
261.3269805649351
 21
419.930718203411
 31
0.4136332104836598
  0
ARC
  5
410
330
2
100
AcDbEntity
  8
L-ZISSEN
100
AcDbCircle
 10
254.638980564935
 20
416.8997182034111
 30
0.4136332104836598
 40
6.687389999999999
100
AcDbArc
 50
342.4119999999982
 51
17.5880000000017
  0
LINE
  5
411
330
2
100
AcDbEntity
  8
L-ZISSEN
100
AcDbLine
 10
272.326480564935
 20
414.899718203411
 30
0.4136332104836598
 11
261.3269805649351
 21
414.899718203411
 31
0.4136332104836598
  0
ARC
  5
412
330
2
100
AcDbEntity
  8
L-ZISSEN
100
AcDbCircle
 10
259.5369805649343
 20
413.8687182034111
 30
0.4136332104836598
 40
1.78908
100
AcDbArc
 50
325.6026367726818
 51
34.38399999999378
  0
ARC
  5
413
330
2
100
AcDbEntity
  8
L-ZISSEN
100
AcDbCircle
 10
274.1164805649341
 20
413.8687182034111
 30
0.4136332104836598
 40
1.78908
100
AcDbArc
 50
145.6160000000062
 51
214.3839999999937
  0
LINE
  5
414
330
2
100
AcDbEntity
  8
L-ZISSEN
100
AcDbLine
 10
272.326480564935
 20
418.899718203411
 30
0.4136332104836598
 11
261.3269805649351
 21
418.899718203411
 31
0.4136332104836598
  0
ARC
  5
415
330
2
100
AcDbEntity
  8
L-ZISSEN
100
AcDbCircle
 10
259.5369805649343
 20
419.930718203411
 30
0.4136332104836598
 40
1.78908
100
AcDbArc
 50
325.6160000000062
 51
34.38399999999378
  0
ARC
  5
416
330
2
100
AcDbEntity
  8
L-ZISSEN
100
AcDbCircle
 10
274.1164805649341
 20
419.930718203411
 30
0.4136332104836598
 40
1.78908
100
AcDbArc
 50
145.6160000000062
 51
214.3839999999937
  0
LINE
  5
417
330
2
100
AcDbEntity
  8
L-ZISSEN
100
AcDbLine
 10
312.7956835778159
 20
371.3994182034109
 30
3.059709237761383
 11
312.6213508187293
 21
391.37597374041
 31
3.059709237761383
  0
LINE
  5
418
330
2
100
AcDbEntity
  8
L-ZISSEN
100
AcDbLine
 10
304.326480564935
 20
384.399218203411
 30
0.4136332104836598
 11
304.326480564935
 21
371.8994182034105
 31
0.4136332104836598
  0
LINE
  5
419
330
2
100
AcDbEntity
  8
L-ZISSEN
100
AcDbLine
 10
312.7956835778159
 20
371.3994182034109
 30
3.059709237761383
 11
310.3269805649351
 21
371.3994182034109
 31
0.1328873825528092
  0
LINE
  5
41A
330
2
100
AcDbEntity
  8
L-ZISSEN
100
AcDbLine
 10
314.8269805649352
 20
363.8994182034096
 30
0.1328873825528092
 11
310.3269805649351
 21
363.89941820341
 31
0.1328873825528092
  0
LINE
  5
41B
330
2
100
AcDbEntity
  8
L-ZISSEN
100
AcDbLine
 10
314.8269805649352
 20
366.8994182034105
 30
0.1328873825528092
 11
310.3269805649351
 21
366.8994182034105
 31
0.1328873825528092
  0
LINE
  5
41C
330
2
100
AcDbEntity
  8
L-ZISSEN
100
AcDbLine
 10
314.8269805649352
 20
366.89941820341
 30
0.1328873825528092
 11
310.3269805649351
 21
366.89941820341
 31
0.1328873825528092
  0
LINE
  5
41D
330
2
100
AcDbEntity
  8
L-ZISSEN
100
AcDbLine
 10
314.8269805649352
 20
363.8994182034104
 30
0.1328873825528092
 11
314.8269805649352
 21
366.8994182034105
 31
0.1328873825528092
  0
LINE
  5
41E
330
2
100
AcDbEntity
  8
L-ZISSEN
100
AcDbLine
 10
312.7956835778159
 20
371.3994182034109
 30
2.451296915892137
 11
312.7956835778159
 21
366.89941820341
 31
2.451296915892137
  0
LINE
  5
41F
330
2
100
AcDbEntity
  8
L-ZISSEN
100
AcDbLine
 10
293.826480564935
 20
409.899218203411
 30
0.4136332104836598
 11
293.826480564935
 21
387.5992182034108
 31
0.4136332104836598
  0
LINE
  5
420
330
2
100
AcDbEntity
  8
L-TYUSIN
100
AcDbLine
 10
283.826480564935
 20
411.3854182034104
 30
0.4136332104836598
 11
283.826480564935
 21
396.8994182034105
 31
0.4136332104836598
  0
ARC
  5
421
330
2
100
AcDbEntity
  8
L-ZISSEN
100
AcDbCircle
 10
294.326480564935
 20
387.5992182034108
 30
0.4136332104836598
 40
0.5
100
AcDbArc
 50
180.0
 51
270.0
  0
LINE
  5
422
330
2
100
AcDbEntity
  8
L-ZISSEN
100
AcDbLine
 10
304.326480564935
 20
384.399218203411
 30
0.4136332104836598
 11
304.326480564935
 21
387.0992182034108
 31
0.4136332104836598
  0
ARC
  5
423
330
2
100
AcDbEntity
  8
L-ZISSEN
100
AcDbCircle
 10
291.826480564935
 20
409.899218203411
 30
0.4136332104836598
 40
2.0
100
AcDbArc
 50
0.0
 51
90.0
  0
LINE
  5
424
330
2
100
AcDbEntity
  8
L-ZISSEN
100
AcDbLine
 10
287.8264805649351
 20
411.8997182034111
 30
0.4136332104836598
 11
287.8264805649351
 21
421.8997182034111
 31
0.4136332104836598
  0
LINE
  5
425
330
2
100
AcDbEntity
  8
L-ZISSEN
100
AcDbLine
 10
279.826480564935
 20
413.8687182034111
 30
0.4136332104836598
 11
279.826480564935
 21
419.930718203411
 31
0.4136332104836598
  0
ARC
  5
426
330
2
100
AcDbEntity
  8
L-ZISSEN
100
AcDbCircle
 10
273.1394805649351
 20
416.8997182034111
 30
0.4136332104836598
 40
6.687389999999999
100
AcDbArc
 50
342.4119999999982
 51
17.5880000000017
  0
LINE
  5
427
330
2
100
AcDbEntity
  8
L-ZISSEN
100
AcDbLine
 10
279.826480564935
 20
412.3997182034111
 30
0.4136332104836598
 11
287.8264805649351
 21
412.3997182034111
 31
0.4136332104836598
  0
LINE
  5
428
330
2
100
AcDbEntity
  8
L-ZISSEN
100
AcDbLine
 10
275.826480564935
 20
411.8992182034109
 30
0.4136332104836598
 11
291.826480564935
 21
411.8992182034109
 31
0.4136332104836598
  0
ARC
  5
429
330
2
100
AcDbEntity
  8
L-ZISSEN
100
AcDbCircle
 10
278.0374805649344
 20
413.8687182034111
 30
0.4136332104836598
 40
1.78908
100
AcDbArc
 50
325.6160000000062
 51
34.38420000000268
  0
LINE
  5
42A
330
2
100
AcDbEntity
  8
L-ZISSEN
100
AcDbLine
 10
279.826480564935
 20
411.8997182034111
 30
0.4136332104836598
 11
279.826480564935
 21
414.3997182034111
 31
0.4136332104836598
  0
LINE
  5
42B
330
2
100
AcDbEntity
  8
L-ZISSEN
100
AcDbLine
 10
279.826480564935
 20
411.8997182034111
 30
0.4136332104836598
 11
281.326480564935
 21
411.8997182034111
 31
0.4136332104836598
  0
LINE
  5
42C
330
2
100
AcDbEntity
  8
L-ZISSEN
100
AcDbLine
 10
279.826480564935
 20
411.8997182034111
 30
0.4136332104836598
 11
281.326480564935
 21
411.8997182034111
 31
0.4136332104836598
  0
LINE
  5
42D
330
2
100
AcDbEntity
  8
L-ZISSEN
100
AcDbLine
 10
286.326480564935
 20
411.8997182034111
 30
0.4136332104836598
 11
287.8264805649351
 21
411.8997182034111
 31
0.4136332104836598
  0
LINE
  5
42E
330
2
100
AcDbEntity
  8
L-ZISSEN
100
AcDbLine
 10
286.326480564935
 20
411.8997182034111
 30
0.4136332104836598
 11
287.8264805649351
 21
411.8997182034111
 31
0.4136332104836598
  0
LINE
  5
42F
330
2
100
AcDbEntity
  8
L-ZISSEN
100
AcDbLine
 10
287.526480564934
 20
424.3997182034111
 30
0.4136332104836598
 11
280.1264805649343
 21
424.3997182034111
 31
0.4136332104836598
  0
LINE
  5
430
330
2
100
AcDbEntity
  8
L-ZISSEN
100
AcDbLine
 10
279.826480564935
 20
421.3997182034111
 30
0.4136332104836598
 11
287.8264805649351
 21
421.3997182034111
 31
0.4136332104836598
  0
LINE
  5
431
330
2
100
AcDbEntity
  8
L-ZISSEN
100
AcDbLine
 10
279.826480564935
 20
421.8997182034111
 30
0.4136332104836598
 11
287.8264805649351
 21
421.8997182034111
 31
0.4136332104836598
  0
LINE
  5
432
330
2
100
AcDbEntity
  8
L-ZISSEN
100
AcDbLine
 10
279.826480564935
 20
419.399718203411
 30
0.4136332104836598
 11
279.826480564935
 21
421.8997182034111
 31
0.4136332104836598
  0
ARC
  5
433
330
2
100
AcDbEntity
  8
L-ZISSEN
100
AcDbCircle
 10
278.0374805649344
 20
419.930718203411
 30
0.4136332104836598
 40
1.78908
100
AcDbArc
 50
325.6160000000062
 51
34.38420000000268
  0
LINE
  5
434
330
2
100
AcDbEntity
  8
L-ZISSEN
100
AcDbLine
 10
279.826480564935
 20
424.0997182034109
 30
0.4136332104836598
 11
280.1264805649343
 21
424.3997182034111
 31
0.4136332104836598
  0
LINE
  5
435
330
2
100
AcDbEntity
  8
L-ZISSEN
100
AcDbLine
 10
281.326480564935
 20
421.8997182034111
 30
0.4136332104836598
 11
279.826480564935
 21
421.8997182034111
 31
0.4136332104836598
  0
LINE
  5
436
330
2
100
AcDbEntity
  8
L-ZISSEN
100
AcDbLine
 10
279.826480564935
 20
424.0997182034109
 30
0.4136332104836598
 11
279.826480564935
 21
421.8997182034111
 31
0.4136332104836598
  0
LINE
  5
437
330
2
100
AcDbEntity
  8
L-ZISSEN
100
AcDbLine
 10
287.526480564934
 20
424.3997182034111
 30
0.4136332104836598
 11
287.8264805649351
 21
424.0997182034109
 31
0.4136332104836598
  0
LINE
  5
438
330
2
100
AcDbEntity
  8
L-ZISSEN
100
AcDbLine
 10
287.8264805649351
 20
424.0997182034109
 30
0.4136332104836598
 11
287.8264805649351
 21
421.8997182034111
 31
0.4136332104836598
  0
LINE
  5
439
330
2
100
AcDbEntity
  8
L-ZISSEN
100
AcDbLine
 10
275.8269805649351
 20
464.3994182034086
 30
0.7412997044220618
 11
250.8269805649351
 21
464.3994182034082
 31
0.7412997044220618
  0
LINE
  5
43A
330
2
100
AcDbEntity
  8
L-ZISSEN
100
AcDbLine
 10
275.8269805649351
 20
481.8994182034105
 30
0.7412997044220618
 11
250.8269805649351
 21
481.8994182034105
 31
0.7412997044220618
  0
ARC
  5
43B
330
2
100
AcDbEntity
  8
L-ZISSEN
100
AcDbCircle
 10
303.8706259151213
 20
462.8131386964034
 30
3.059709237761383
 40
5.0
100
AcDbArc
 50
3.000000000005417
 51
90.0
  0
LINE
  5
43C
330
2
100
AcDbEntity
  8
L-ZISSEN
100
AcDbLine
 10
303.8706259151213
 20
467.8994182034105
 30
0.1328873825528092
 11
275.8269805649351
 21
467.8994182034105
 31
0.1328873825528092
  0
LINE
  5
43D
330
2
100
AcDbEntity
  8
L-ZISSEN
100
AcDbLine
 10
544.1363513558967
 20
463.899418203408
 30
0.6084123218692526
 11
608.1363513558967
 21
463.899418203408
 31
0.6084123218692526
  0
LINE
  5
43E
330
2
100
AcDbEntity
  8
L-ZISSEN
100
AcDbLine
 10
544.1363513558967
 20
481.3994182034098
 30
0.6084123218692526
 11
608.1363513558967
 21
481.3994182034098
 31
0.6084123218692526
  0
LINE
  5
43F
330
2
100
AcDbEntity
  8
L-ZISSEN
100
AcDbLine
 10
583.6363513558949
 20
421.3997182034104
 30
0.2807458279308506
 11
591.6363513558949
 21
421.3997182034104
 31
0.2807458279308506
  0
LINE
  5
440
330
2
100
AcDbEntity
  8
L-ZISSEN
100
AcDbLine
 10
583.6363513558949
 20
420.8997182034104
 30
0.2807458279308506
 11
591.6363513558949
 21
420.8997182034104
 31
0.2807458279308506
  0
LINE
  5
441
330
2
100
AcDbEntity
  8
L-ZISSEN
100
AcDbLine
 10
544.1363513558967
 20
463.899418203408
 30
0.6084123218692526
 11
544.1363513558967
 21
481.3994182034098
 31
0.6084123218692526
  0
LINE
  5
442
330
2
100
AcDbEntity
  8
L-TYUSIN
100
AcDbLine
 10
593.9863513558971
 20
469.3994182034098
 30
0.6084123218692526
 11
601.2863513558963
 21
469.3994182034098
 31
0.6084123218692526
  0
LINE
  5
443
330
2
100
AcDbEntity
  8
L-TYUSIN
100
AcDbLine
 10
593.9863513558971
 20
476.3994182034098
 30
0.6084123218692526
 11
601.2863513558963
 21
476.3994182034098
 31
0.6084123218692526
  0
LINE
  5
444
330
2
100
AcDbEntity
  8
L-ZISSEN
100
AcDbLine
 10
544.1363513558967
 20
791.0097068399022
 30
0.6084123218692526
 11
544.1363513558967
 21
812.0097068399031
 31
0.6084123218692526
  0
ENDSEC
  0
SECTION
  2
OBJECTS
  0
DICTIONARY
  5
8
330
0
100
AcDbDictionary
  3
ACAD_GROUP
350
22
  3
ACAD_LAYOUT
350
D
  3
ACAD_MLINESTYLE
350
23
  3
ACAD_PLOTSETTINGS
350
24
1001
ACAD
1000
TREAT_AS_HARD
1070
     0
  0
DICTIONARY
  5
3
330
2
100
AcDbDictionary
  3
ACAD_LAYOUTSELFREF
350
48D
1001
ACAD
1000
TREAT_AS_HARD
1070
     1
  0
DICTIONARY
  5
F
330
E
100
AcDbDictionary
  3
ACAD_LAYOUTSELFREF
350
48E
1001
ACAD
1000
TREAT_AS_HARD
1070
     1
  0
DICTIONARY
  5
22
102
{ACAD_REACTORS
330
8
102
}
330
8
100
AcDbDictionary
1001
ACAD
1000
TREAT_AS_HARD
1070
     0
  0
DICTIONARY
  5
D
102
{ACAD_REACTORS
330
8
102
}
330
8
100
AcDbDictionary
1001
ACAD
1000
TREAT_AS_HARD
1070
     0
  0
DICTIONARY
  5
23
102
{ACAD_REACTORS
330
8
102
}
330
8
100
AcDbDictionary
  3
STANDARD
350
26
1001
ACAD
1000
TREAT_AS_HARD
1070
     0
  0
DICTIONARY
  5
24
102
{ACAD_REACTORS
330
8
102
}
330
8
100
AcDbDictionary
1001
ACAD
1000
TREAT_AS_HARD
1070
     0
  0
XRECORD
  5
48D
102
{ACAD_REACTORS
330
3
102
}
330
3
100
AcDbXrecord
340
2
  0
XRECORD
  5
48E
102
{ACAD_REACTORS
330
F
102
}
330
F
100
AcDbXrecord
340
E
  0
MLINESTYLE
  5
26
102
{ACAD_REACTORS
330
23
102
}
330
23
100
AcDbMlineStyle
  2
STANDARD
 70
     0
  3

 62
     0
 51
90.0
 52
90.0
 71
     2
 49
0.5
 62
   256
  6
BYLAYER
 49
-0.5
 62
   256
  6
BYLAYER
  0
ENDSEC
  0
EOF
