  0
SECTION
  2
HEADER
  9
$ACADVER
  1
AC1006
  9
$INSBASE
 10
0.0
 20
0.0
 30
0.0
  9
$EXTMIN
 10
0.0
 20
0.0
  9
$EXTMAX
 10
420.0
 20
390.0
  9
$LIMMIN
 10
0.0
 20
0.0
  9
$LIMMAX
 10
420.0
 20
297.0
  9
$ORTHOMODE
 70
     0
  9
$REGENMODE
 70
     1
  9
$FILLMODE
 70
     1
  9
$QTEXTMODE
 70
     0
  9
$MIRRTEXT
 70
     1
  9
$DRAGMODE
 70
     2
  9
$LTSCALE
 40
1.0
  9
$OSMODE
 70
     0
  9
$ATTMODE
 70
     1
  9
$TEXTSIZE
 40
0.2
  9
$TRACEWID
 40
0.05
  9
$TEXTSTYLE
  7
STANDARD
  9
$CLAYER
  8
L-ZISSEN
  9
$CELTYPE
  6
BYLAYER
  9
$CECOLOR
 62
   256
  9
$DIMSCALE
 40
1.0
  9
$DIMASZ
 40
1.5
  9
$DIMEXO
 40
1.0
  9
$DIMDLI
 40
0.38
  9
$DIMRND
 40
0.0
  9
$DIMDLE
 40
0.0
  9
$DIMEXE
 40
1.0
  9
$DIMTP
 40
0.0
  9
$DIMTM
 40
0.0
  9
$DIMTXT
 40
2.5
  9
$DIMCEN
 40
0.09
  9
$DIMTSZ
 40
0.0
  9
$DIMTOL
 70
     0
  9
$DIMLIM
 70
     0
  9
$DIMTIH
 70
     0
  9
$DIMTOH
 70
     0
  9
$DIMSE1
 70
     0
  9
$DIMSE2
 70
     0
  9
$DIMTAD
 70
     1
  9
$DIMZIN
 70
     0
  9
$DIMBLK
  1

  9
$DIMASO
 70
     1
  9
$DIMSHO
 70
     0
  9
$DIMPOST
  1

  9
$DIMAPOST
  1

  9
$DIMALT
 70
     0
  9
$DIMALTD
 70
     2
  9
$DIMALTF
 40
25.4
  9
$DIMLFAC
 40
1.0
  9
$DIMTOFL
 70
     1
  9
$DIMTVP
 40
0.0
  9
$DIMTIX
 70
     1
  9
$DIMSOXD
 70
     0
  9
$DIMSAH
 70
     0
  9
$DIMBLK1
  1

  9
$DIMBLK2
  1

  9
$LUNITS
 70
     2
  9
$LUPREC
 70
     4
  9
$AXISMODE
 70
     0
  9
$AXISUNIT
 10
0.0
 20
0.0
  9
$SKETCHINC
 40
0.1
  9
$FILLETRAD
 40
0.0
  9
$AUNITS
 70
     0
  9
$AUPREC
 70
     0
  9
$MENU
  1
acad
  9
$ELEVATION
 40
0.0
  9
$THICKNESS
 40
0.0
  9
$LIMCHECK
 70
     0
  9
$BLIPMODE
 70
     1
  9
$CHAMFERA
 40
0.0
  9
$CHAMFERB
 40
0.0
  9
$SKPOLY
 70
     0
  9
$TDCREATE
 40
2449644.5470991898
  9
$TDUPDATE
 40
2449644.5476287035
  9
$TDINDWG
 40
0.0001811343
  9
$TDUSRTIMER
 40
0.0001811343
  9
$USRTIMER
 70
     1
  9
$ANGBASE
 50
0.0
  9
$ANGDIR
 70
     0
  9
$PDMODE
 70
     0
  9
$PDSIZE
 40
0.0
  9
$PLINEWID
 40
0.0
  9
$COORDS
 70
     0
  9
$SPLFRAME
 70
     0
  9
$SPLINETYPE
 70
     6
  9
$SPLINESEGS
 70
     8
  9
$ATTDIA
 70
     0
  9
$ATTREQ
 70
     1
  9
$HANDLING
 70
     0
  9
$HANDSEED
  5
0
  9
$SURFTAB1
 70
     6
  9
$SURFTAB2
 70
     6
  9
$SURFTYPE
 70
     6
  9
$SURFU
 70
     6
  9
$SURFV
 70
     6
  9
$FLATLAND
 70
     0
  9
$UCSNAME
  2

  9
$UCSORG
 10
0.0
 20
0.0
 30
0.0
  9
$UCSXDIR
 10
1.0
 20
0.0
 30
0.0
  9
$UCSYDIR
 10
0.0
 20
1.0
 30
0.0
  9
$USERI1
 70
     0
  9
$USERI2
 70
     0
  9
$USERI3
 70
     0
  9
$USERI4
 70
     0
  9
$USERI5
 70
     0
  9
$USERR1
 40
0.0
  9
$USERR2
 40
0.0
  9
$USERR3
 40
0.0
  9
$USERR4
 40
0.0
  9
$USERR5
 40
0.0
  9
$WORLDVIEW
 70
     1
  0
ENDSEC
  0
SECTION
  2
TABLES
  0
TABLE
  2
VPORT
 70
     2
  0
VPORT
  2
*ACTIVE
 70
     0
 10
0.0
 20
0.0
 11
1.0
 21
1.0
 12
318.013846
 22
218.112088
 13
0.0
 23
0.0
 14
1.0
 24
1.0
 15
0.0
 25
0.0
 16
0.0
 26
0.0
 36
1.0
 17
0.0
 27
0.0
 37
0.0
 40
409.351199
 41
1.5487
 42
50.0
 43
0.0
 44
0.0
 50
0.0
 51
0.0
 71
     0
 72
   100
 73
     1
 74
     0
 75
     0
 76
     0
 77
     0
 78
     0
  0
ENDTAB
  0
TABLE
  2
LTYPE
 70
     2
  0
LTYPE
  2
CONTINUOUS
 70
    64
  3
Solid line
 72
    65
 73
     0
 40
0.0
  0
LTYPE
  2
CENTER
 70
    64
  3
_____ _ ____ _ ____ _ ____
 72
    65
 73
     4
 40
18.0
 49
15.0
 49
-1.0
 49
1.0
 49
-1.0
  0
ENDTAB
  0
TABLE
  2
LAYER
 70
     3
  0
LAYER
  2
0
 70
     0
 62
     7
  6
CONTINUOUS
  0
LAYER
  2
L-ZISSEN
 70
    64
 62
     7
  6
CONTINUOUS
  0
LAYER
  2
L-TYUSIN
 70
    64
 62
     1
  6
CENTER
  0
ENDTAB
  0
TABLE
  2
STYLE
 70
     1
  0
STYLE
  2
STANDARD
 70
    64
 40
0.0
 41
1.0
 50
0.0
 71
     0
 42
0.2
  3
txt
  4

  0
ENDTAB
  0
TABLE
  2
VIEW
 70
     0
  0
ENDTAB
  0
TABLE
  2
UCS
 70
     0
  0
ENDTAB
  0
TABLE
  2
DWGMGR
 70
     0
  0
ENDTAB
  0
ENDSEC
  0
SECTION
  2
BLOCKS
  0
BLOCK
  8
L-ZISSEN
  2
DCAT-07
 70
    64
 10
0.0
 20
0.0
 30
0.0
  0
LINE
  8
L-TYUSIN
 10
72.5
 20
325.0
 30
0.0
 11
87.5
 21
325.0
 31
0.0
  0
LINE
  8
L-ZISSEN
 10
100.0
 20
328.0
 30
0.0
 11
100.0
 21
322.0
 31
0.0
  0
LINE
  8
L-TYUSIN
 10
136.0
 20
333.273503
 30
0.0
 11
136.0
 21
316.726497
 31
0.0
  0
LINE
  8
L-ZISSEN
 10
116.0
 20
330.773503
 30
0.0
 11
116.0
 21
319.226497
 31
0.0
  0
LINE
  8
L-ZISSEN
 10
108.0
 20
330.773503
 30
0.0
 11
108.0
 21
319.226497
 31
0.0
  0
LINE
  8
L-ZISSEN
 10
106.0
 20
329.0
 30
0.0
 11
106.0
 21
321.0
 31
0.0
  0
LINE
  8
L-ZISSEN
 10
131.0
 20
322.113249
 30
0.0
 11
136.0
 21
319.226497
 31
0.0
  0
LINE
  8
L-ZISSEN
 10
136.0
 20
319.226497
 30
0.0
 11
141.0
 21
322.113249
 31
0.0
  0
LINE
  8
L-ZISSEN
 10
141.0
 20
322.113249
 30
0.0
 11
141.0
 21
327.886751
 31
0.0
  0
LINE
  8
L-ZISSEN
 10
141.0
 20
327.886751
 30
0.0
 11
136.0
 21
330.773503
 31
0.0
  0
LINE
  8
L-ZISSEN
 10
136.0
 20
330.773503
 30
0.0
 11
131.0
 21
327.886751
 31
0.0
  0
LINE
  8
L-ZISSEN
 10
131.0
 20
327.886751
 30
0.0
 11
131.0
 21
322.113249
 31
0.0
  0
LINE
  8
L-ZISSEN
 10
116.0
 20
330.773503
 30
0.0
 11
108.0
 21
330.773503
 31
0.0
  0
LINE
  8
L-ZISSEN
 10
116.0
 20
319.226497
 30
0.0
 11
108.0
 21
319.226497
 31
0.0
  0
LINE
  8
L-ZISSEN
 10
116.0
 20
327.886751
 30
0.0
 11
108.0
 21
327.886751
 31
0.0
  0
LINE
  8
L-ZISSEN
 10
116.0
 20
322.113249
 30
0.0
 11
108.0
 21
322.113249
 31
0.0
  0
LINE
  8
L-ZISSEN
 10
106.0
 20
329.0
 30
0.0
 11
108.0
 21
329.0
 31
0.0
  0
LINE
  8
L-ZISSEN
 10
106.0
 20
321.0
 30
0.0
 11
108.0
 21
321.0
 31
0.0
  0
LINE
  8
L-ZISSEN
 10
100.0
 20
328.0
 30
0.0
 11
106.0
 21
328.0
 31
0.0
  0
LINE
  8
L-ZISSEN
 10
100.0
 20
322.0
 30
0.0
 11
106.0
 21
322.0
 31
0.0
  0
LINE
  8
L-ZISSEN
 10
116.0
 20
345.0
 30
0.0
 11
108.0
 21
345.0
 31
0.0
  0
LINE
  8
L-ZISSEN
 10
100.0
 20
347.0
 30
0.0
 11
106.0
 21
347.0
 31
0.0
  0
LINE
  8
L-ZISSEN
 10
100.0
 20
353.0
 30
0.0
 11
106.0
 21
353.0
 31
0.0
  0
LINE
  8
L-ZISSEN
 10
106.0
 20
346.0
 30
0.0
 11
108.0
 21
346.0
 31
0.0
  0
LINE
  8
L-ZISSEN
 10
106.0
 20
354.0
 30
0.0
 11
108.0
 21
354.0
 31
0.0
  0
LINE
  8
L-ZISSEN
 10
116.0
 20
355.0
 30
0.0
 11
108.0
 21
355.0
 31
0.0
  0
LINE
  8
L-ZISSEN
 10
106.0
 20
354.0
 30
0.0
 11
106.0
 21
346.0
 31
0.0
  0
LINE
  8
L-ZISSEN
 10
108.0
 20
355.0
 30
0.0
 11
108.0
 21
345.0
 31
0.0
  0
LINE
  8
L-ZISSEN
 10
116.0
 20
355.0
 30
0.0
 11
116.0
 21
345.0
 31
0.0
  0
LINE
  8
L-ZISSEN
 10
100.0
 20
353.0
 30
0.0
 11
100.0
 21
347.0
 31
0.0
  0
LINE
  8
L-TYUSIN
 10
118.5
 20
350.0
 30
0.0
 11
97.5
 21
350.0
 31
0.0
  0
LINE
  8
L-ZISSEN
 10
85.0
 20
327.886751
 30
0.0
 11
85.0
 21
322.113249
 31
0.0
  0
LINE
  8
L-ZISSEN
 10
80.0
 20
330.773503
 30
0.0
 11
85.0
 21
327.886751
 31
0.0
  0
LINE
  8
L-ZISSEN
 10
75.0
 20
327.886751
 30
0.0
 11
80.0
 21
330.773503
 31
0.0
  0
LINE
  8
L-ZISSEN
 10
75.0
 20
322.113249
 30
0.0
 11
75.0
 21
327.886751
 31
0.0
  0
LINE
  8
L-ZISSEN
 10
80.0
 20
319.226497
 30
0.0
 11
75.0
 21
322.113249
 31
0.0
  0
LINE
  8
L-ZISSEN
 10
85.0
 20
322.113249
 30
0.0
 11
80.0
 21
319.226497
 31
0.0
  0
LINE
  8
L-TYUSIN
 10
80.0
 20
333.273503
 30
0.0
 11
80.0
 21
316.726497
 31
0.0
  0
CIRCLE
  8
L-ZISSEN
 10
80.0
 20
325.0
 30
0.0
 40
4.0
  0
CIRCLE
  8
L-ZISSEN
 10
80.0
 20
325.0
 30
0.0
 40
3.0
  0
CIRCLE
  8
L-ZISSEN
 10
136.0
 20
325.0
 30
0.0
 40
2.5
  0
LINE
  8
L-ZISSEN
 10
118.0
 20
270.0
 30
0.0
 11
108.0
 21
270.0
 31
0.0
  0
CIRCLE
  8
L-ZISSEN
 10
80.0
 20
240.0
 30
0.0
 40
3.0
  0
CIRCLE
  8
L-ZISSEN
 10
80.0
 20
240.0
 30
0.0
 40
4.0
  0
LINE
  8
L-TYUSIN
 10
80.0
 20
247.5
 30
0.0
 11
80.0
 21
232.5
 31
0.0
  0
LINE
  8
L-TYUSIN
 10
120.5
 20
265.0
 30
0.0
 11
97.5
 21
265.0
 31
0.0
  0
LINE
  8
L-ZISSEN
 10
100.0
 20
268.0
 30
0.0
 11
100.0
 21
262.0
 31
0.0
  0
LINE
  8
L-ZISSEN
 10
118.0
 20
270.0
 30
0.0
 11
118.0
 21
260.0
 31
0.0
  0
LINE
  8
L-ZISSEN
 10
108.0
 20
270.0
 30
0.0
 11
108.0
 21
260.0
 31
0.0
  0
LINE
  8
L-ZISSEN
 10
106.0
 20
269.0
 30
0.0
 11
106.0
 21
261.0
 31
0.0
  0
LINE
  8
L-ZISSEN
 10
106.0
 20
269.0
 30
0.0
 11
108.0
 21
269.0
 31
0.0
  0
LINE
  8
L-ZISSEN
 10
106.0
 20
261.0
 30
0.0
 11
108.0
 21
261.0
 31
0.0
  0
LINE
  8
L-ZISSEN
 10
100.0
 20
268.0
 30
0.0
 11
106.0
 21
268.0
 31
0.0
  0
LINE
  8
L-ZISSEN
 10
100.0
 20
262.0
 30
0.0
 11
106.0
 21
262.0
 31
0.0
  0
LINE
  8
L-ZISSEN
 10
118.0
 20
260.0
 30
0.0
 11
108.0
 21
260.0
 31
0.0
  0
LINE
  8
L-ZISSEN
 10
100.0
 20
237.0
 30
0.0
 11
106.0
 21
237.0
 31
0.0
  0
LINE
  8
L-ZISSEN
 10
100.0
 20
243.0
 30
0.0
 11
106.0
 21
243.0
 31
0.0
  0
LINE
  8
L-ZISSEN
 10
106.0
 20
236.0
 30
0.0
 11
108.0
 21
236.0
 31
0.0
  0
LINE
  8
L-ZISSEN
 10
106.0
 20
244.0
 30
0.0
 11
108.0
 21
244.0
 31
0.0
  0
LINE
  8
L-ZISSEN
 10
118.0
 20
235.0
 30
0.0
 11
108.0
 21
235.0
 31
0.0
  0
LINE
  8
L-ZISSEN
 10
118.0
 20
245.0
 30
0.0
 11
108.0
 21
245.0
 31
0.0
  0
LINE
  8
L-ZISSEN
 10
106.0
 20
244.0
 30
0.0
 11
106.0
 21
236.0
 31
0.0
  0
LINE
  8
L-ZISSEN
 10
108.0
 20
245.0
 30
0.0
 11
108.0
 21
235.0
 31
0.0
  0
LINE
  8
L-ZISSEN
 10
118.0
 20
245.0
 30
0.0
 11
118.0
 21
235.0
 31
0.0
  0
LINE
  8
L-TYUSIN
 10
138.0
 20
247.5
 30
0.0
 11
138.0
 21
232.5
 31
0.0
  0
LINE
  8
L-ZISSEN
 10
100.0
 20
243.0
 30
0.0
 11
100.0
 21
237.0
 31
0.0
  0
LINE
  8
L-TYUSIN
 10
72.5
 20
240.0
 30
0.0
 11
87.5
 21
240.0
 31
0.0
  0
LINE
  8
L-ZISSEN
 10
75.0
 20
245.0
 30
0.0
 11
85.0
 21
245.0
 31
0.0
  0
LINE
  8
L-ZISSEN
 10
75.0
 20
235.0
 30
0.0
 11
85.0
 21
235.0
 31
0.0
  0
LINE
  8
L-ZISSEN
 10
75.0
 20
245.0
 30
0.0
 11
75.0
 21
235.0
 31
0.0
  0
LINE
  8
L-ZISSEN
 10
85.0
 20
245.0
 30
0.0
 11
85.0
 21
235.0
 31
0.0
  0
LINE
  8
L-ZISSEN
 10
133.0
 20
245.0
 30
0.0
 11
133.0
 21
235.0
 31
0.0
  0
LINE
  8
L-ZISSEN
 10
143.0
 20
245.0
 30
0.0
 11
143.0
 21
235.0
 31
0.0
  0
LINE
  8
L-ZISSEN
 10
133.0
 20
235.0
 30
0.0
 11
143.0
 21
235.0
 31
0.0
  0
LINE
  8
L-ZISSEN
 10
133.0
 20
245.0
 30
0.0
 11
143.0
 21
245.0
 31
0.0
  0
LINE
  8
L-TYUSIN
 10
113.0
 20
272.5
 30
0.0
 11
113.0
 21
257.5
 31
0.0
  0
CIRCLE
  8
L-ZISSEN
 10
113.0
 20
265.0
 30
0.0
 40
2.5
  0
LINE
  8
L-TYUSIN
 10
72.5
 20
155.0
 30
0.0
 11
87.5
 21
155.0
 31
0.0
  0
LINE
  8
L-ZISSEN
 10
100.0
 20
159.740394
 30
0.0
 11
100.0
 21
150.259606
 31
0.0
  0
LINE
  8
L-TYUSIN
 10
134.0
 20
163.273503
 30
0.0
 11
134.0
 21
146.726497
 31
0.0
  0
LINE
  8
L-ZISSEN
 10
114.0
 20
160.773503
 30
0.0
 11
114.0
 21
149.226497
 31
0.0
  0
LINE
  8
L-ZISSEN
 10
109.0
 20
160.773503
 30
0.0
 11
109.0
 21
149.226497
 31
0.0
  0
LINE
  8
L-ZISSEN
 10
114.0
 20
160.773503
 30
0.0
 11
109.0
 21
160.773503
 31
0.0
  0
LINE
  8
L-ZISSEN
 10
114.0
 20
149.226497
 30
0.0
 11
109.0
 21
149.226497
 31
0.0
  0
LINE
  8
L-TYUSIN
 10
80.0
 20
163.273503
 30
0.0
 11
80.0
 21
146.726497
 31
0.0
  0
LINE
  8
L-ZISSEN
 10
100.0
 20
159.740394
 30
0.0
 11
109.0
 21
160.02061
 31
0.0
  0
LINE
  8
L-ZISSEN
 10
100.0
 20
150.259606
 30
0.0
 11
109.0
 21
149.97939
 31
0.0
  0
LINE
  8
L-ZISSEN
 10
114.0
 20
157.886751
 30
0.0
 11
109.0
 21
157.886751
 31
0.0
  0
LINE
  8
L-ZISSEN
 10
114.0
 20
152.113249
 30
0.0
 11
109.0
 21
152.113249
 31
0.0
  0
LINE
  8
L-ZISSEN
 10
100.0
 20
175.259606
 30
0.0
 11
108.338061
 21
175.0
 31
0.0
  0
LINE
  8
L-ZISSEN
 10
100.0
 20
184.740394
 30
0.0
 11
108.338061
 21
185.0
 31
0.0
  0
LINE
  8
L-ZISSEN
 10
109.0
 20
185.0
 30
0.0
 11
109.0
 21
175.0
 31
0.0
  0
LINE
  8
L-ZISSEN
 10
114.0
 20
185.0
 30
0.0
 11
114.0
 21
175.0
 31
0.0
  0
LINE
  8
L-ZISSEN
 10
100.0
 20
184.740394
 30
0.0
 11
100.0
 21
175.259606
 31
0.0
  0
LINE
  8
L-TYUSIN
 10
116.5
 20
180.0
 30
0.0
 11
97.5
 21
180.0
 31
0.0
  0
LINE
  8
L-ZISSEN
 10
114.0
 20
185.0
 30
0.0
 11
108.338061
 21
185.0
 31
0.0
  0
LINE
  8
L-ZISSEN
 10
114.0
 20
175.0
 30
0.0
 11
108.338061
 21
175.0
 31
0.0
  0
CIRCLE
  8
L-ZISSEN
 10
80.0
 20
155.0
 30
0.0
 40
4.740394
  0
CIRCLE
  8
L-ZISSEN
 10
134.0
 20
155.0
 30
0.0
 40
2.5
  0
LINE
  8
L-ZISSEN
 10
109.0
 20
180.0
 30
0.0
 11
114.0
 21
180.0
 31
0.0
  0
LINE
  8
L-ZISSEN
 10
119.0
 20
100.0
 30
0.0
 11
108.338061
 21
100.0
 31
0.0
  0
CIRCLE
  8
L-ZISSEN
 10
80.0
 20
70.0
 30
0.0
 40
4.740394
  0
LINE
  8
L-ZISSEN
 10
119.0
 20
90.0
 30
0.0
 11
108.338061
 21
90.0
 31
0.0
  0
LINE
  8
L-TYUSIN
 10
121.5
 20
95.0
 30
0.0
 11
97.5
 21
95.0
 31
0.0
  0
LINE
  8
L-ZISSEN
 10
100.0
 20
99.740394
 30
0.0
 11
100.0
 21
90.259606
 31
0.0
  0
LINE
  8
L-ZISSEN
 10
119.0
 20
100.0
 30
0.0
 11
119.0
 21
90.0
 31
0.0
  0
LINE
  8
L-ZISSEN
 10
108.338061
 20
100.0
 30
0.0
 11
108.338061
 21
90.0
 31
0.0
  0
LINE
  8
L-ZISSEN
 10
100.0
 20
99.740394
 30
0.0
 11
108.338061
 21
100.0
 31
0.0
  0
LINE
  8
L-ZISSEN
 10
100.0
 20
90.259606
 30
0.0
 11
108.338061
 21
90.0
 31
0.0
  0
LINE
  8
L-TYUSIN
 10
80.0
 20
77.5
 30
0.0
 11
80.0
 21
62.5
 31
0.0
  0
LINE
  8
L-TYUSIN
 10
139.0
 20
77.5
 30
0.0
 11
139.0
 21
62.5
 31
0.0
  0
LINE
  8
L-TYUSIN
 10
72.5
 20
70.0
 30
0.0
 11
87.5
 21
70.0
 31
0.0
  0
LINE
  8
L-ZISSEN
 10
75.0
 20
75.0
 30
0.0
 11
85.0
 21
75.0
 31
0.0
  0
LINE
  8
L-ZISSEN
 10
75.0
 20
65.0
 30
0.0
 11
85.0
 21
65.0
 31
0.0
  0
LINE
  8
L-ZISSEN
 10
75.0
 20
75.0
 30
0.0
 11
75.0
 21
65.0
 31
0.0
  0
LINE
  8
L-ZISSEN
 10
85.0
 20
75.0
 30
0.0
 11
85.0
 21
65.0
 31
0.0
  0
LINE
  8
L-ZISSEN
 10
134.0
 20
75.0
 30
0.0
 11
134.0
 21
65.0
 31
0.0
  0
LINE
  8
L-ZISSEN
 10
144.0
 20
75.0
 30
0.0
 11
144.0
 21
65.0
 31
0.0
  0
LINE
  8
L-ZISSEN
 10
134.0
 20
75.0
 30
0.0
 11
144.0
 21
75.0
 31
0.0
  0
LINE
  8
L-ZISSEN
 10
134.0
 20
65.0
 30
0.0
 11
144.0
 21
65.0
 31
0.0
  0
LINE
  8
L-ZISSEN
 10
100.0
 20
65.259606
 30
0.0
 11
108.338061
 21
65.0
 31
0.0
  0
LINE
  8
L-ZISSEN
 10
100.0
 20
74.740394
 30
0.0
 11
108.338061
 21
75.0
 31
0.0
  0
LINE
  8
L-ZISSEN
 10
108.338061
 20
75.0
 30
0.0
 11
108.338061
 21
65.0
 31
0.0
  0
LINE
  8
L-ZISSEN
 10
119.0
 20
75.0
 30
0.0
 11
119.0
 21
65.0
 31
0.0
  0
LINE
  8
L-ZISSEN
 10
100.0
 20
74.740394
 30
0.0
 11
100.0
 21
65.259606
 31
0.0
  0
LINE
  8
L-ZISSEN
 10
119.0
 20
65.0
 30
0.0
 11
108.338061
 21
65.0
 31
0.0
  0
LINE
  8
L-ZISSEN
 10
119.0
 20
75.0
 30
0.0
 11
108.338061
 21
75.0
 31
0.0
  0
LINE
  8
L-TYUSIN
 10
114.0
 20
102.5
 30
0.0
 11
114.0
 21
87.5
 31
0.0
  0
CIRCLE
  8
L-ZISSEN
 10
114.0
 20
95.0
 30
0.0
 40
2.5
  0
LINE
  8
L-ZISSEN
 10
75.0
 20
152.113249
 30
0.0
 11
80.0
 21
149.226497
 31
0.0
  0
LINE
  8
L-ZISSEN
 10
80.0
 20
149.226497
 30
0.0
 11
85.0
 21
152.113249
 31
0.0
  0
LINE
  8
L-ZISSEN
 10
85.0
 20
152.113249
 30
0.0
 11
85.0
 21
157.886751
 31
0.0
  0
LINE
  8
L-ZISSEN
 10
85.0
 20
157.886751
 30
0.0
 11
80.0
 21
160.773503
 31
0.0
  0
LINE
  8
L-ZISSEN
 10
80.0
 20
160.773503
 30
0.0
 11
75.0
 21
157.886751
 31
0.0
  0
LINE
  8
L-ZISSEN
 10
75.0
 20
157.886751
 30
0.0
 11
75.0
 21
152.113249
 31
0.0
  0
LINE
  8
L-ZISSEN
 10
129.0
 20
152.113249
 30
0.0
 11
134.0
 21
149.226497
 31
0.0
  0
LINE
  8
L-ZISSEN
 10
134.0
 20
149.226497
 30
0.0
 11
139.0
 21
152.113249
 31
0.0
  0
LINE
  8
L-ZISSEN
 10
139.0
 20
152.113249
 30
0.0
 11
139.0
 21
157.886751
 31
0.0
  0
LINE
  8
L-ZISSEN
 10
139.0
 20
157.886751
 30
0.0
 11
134.0
 21
160.773503
 31
0.0
  0
LINE
  8
L-ZISSEN
 10
134.0
 20
160.773503
 30
0.0
 11
129.0
 21
157.886751
 31
0.0
  0
LINE
  8
L-ZISSEN
 10
129.0
 20
157.886751
 30
0.0
 11
129.0
 21
152.113249
 31
0.0
  0
CIRCLE
  8
L-ZISSEN
 10
205.0
 20
325.0
 30
0.0
 40
3.0
  0
CIRCLE
  8
L-ZISSEN
 10
205.0
 20
325.0
 30
0.0
 40
4.0
  0
LINE
  8
L-TYUSIN
 10
205.0
 20
334.428203
 30
0.0
 11
205.0
 21
315.571797
 31
0.0
  0
LINE
  8
L-ZISSEN
 10
211.0
 20
321.535898
 30
0.0
 11
205.0
 21
318.071797
 31
0.0
  0
LINE
  8
L-ZISSEN
 10
205.0
 20
318.071797
 30
0.0
 11
199.0
 21
321.535898
 31
0.0
  0
LINE
  8
L-ZISSEN
 10
199.0
 20
321.535898
 30
0.0
 11
199.0
 21
328.464102
 31
0.0
  0
LINE
  8
L-ZISSEN
 10
199.0
 20
328.464102
 30
0.0
 11
205.0
 21
331.928203
 31
0.0
  0
LINE
  8
L-ZISSEN
 10
205.0
 20
331.928203
 30
0.0
 11
211.0
 21
328.464102
 31
0.0
  0
LINE
  8
L-ZISSEN
 10
211.0
 20
328.464102
 30
0.0
 11
211.0
 21
321.535898
 31
0.0
  0
LINE
  8
L-TYUSIN
 10
245.5
 20
350.0
 30
0.0
 11
222.5
 21
350.0
 31
0.0
  0
LINE
  8
L-ZISSEN
 10
225.0
 20
353.0
 30
0.0
 11
225.0
 21
347.0
 31
0.0
  0
LINE
  8
L-ZISSEN
 10
243.0
 20
356.0
 30
0.0
 11
243.0
 21
344.0
 31
0.0
  0
LINE
  8
L-ZISSEN
 10
233.0
 20
356.0
 30
0.0
 11
233.0
 21
344.0
 31
0.0
  0
LINE
  8
L-ZISSEN
 10
231.0
 20
354.0
 30
0.0
 11
231.0
 21
346.0
 31
0.0
  0
LINE
  8
L-ZISSEN
 10
243.0
 20
356.0
 30
0.0
 11
233.0
 21
356.0
 31
0.0
  0
LINE
  8
L-ZISSEN
 10
231.0
 20
354.0
 30
0.0
 11
233.0
 21
354.0
 31
0.0
  0
LINE
  8
L-ZISSEN
 10
231.0
 20
346.0
 30
0.0
 11
233.0
 21
346.0
 31
0.0
  0
LINE
  8
L-ZISSEN
 10
225.0
 20
353.0
 30
0.0
 11
231.0
 21
353.0
 31
0.0
  0
LINE
  8
L-ZISSEN
 10
225.0
 20
347.0
 30
0.0
 11
231.0
 21
347.0
 31
0.0
  0
LINE
  8
L-ZISSEN
 10
243.0
 20
344.0
 30
0.0
 11
233.0
 21
344.0
 31
0.0
  0
LINE
  8
L-ZISSEN
 10
225.0
 20
322.0
 30
0.0
 11
231.0
 21
322.0
 31
0.0
  0
LINE
  8
L-ZISSEN
 10
225.0
 20
328.0
 30
0.0
 11
231.0
 21
328.0
 31
0.0
  0
LINE
  8
L-ZISSEN
 10
231.0
 20
321.0
 30
0.0
 11
233.0
 21
321.0
 31
0.0
  0
LINE
  8
L-ZISSEN
 10
231.0
 20
329.0
 30
0.0
 11
233.0
 21
329.0
 31
0.0
  0
LINE
  8
L-ZISSEN
 10
257.0
 20
328.464102
 30
0.0
 11
257.0
 21
321.535898
 31
0.0
  0
LINE
  8
L-ZISSEN
 10
263.0
 20
331.928203
 30
0.0
 11
257.0
 21
328.464102
 31
0.0
  0
LINE
  8
L-ZISSEN
 10
269.0
 20
328.464102
 30
0.0
 11
263.0
 21
331.928203
 31
0.0
  0
LINE
  8
L-ZISSEN
 10
269.0
 20
321.535898
 30
0.0
 11
269.0
 21
328.464102
 31
0.0
  0
LINE
  8
L-ZISSEN
 10
263.0
 20
318.071797
 30
0.0
 11
269.0
 21
321.535898
 31
0.0
  0
LINE
  8
L-ZISSEN
 10
257.0
 20
321.535898
 30
0.0
 11
263.0
 21
318.071797
 31
0.0
  0
LINE
  8
L-ZISSEN
 10
231.0
 20
329.0
 30
0.0
 11
231.0
 21
321.0
 31
0.0
  0
LINE
  8
L-ZISSEN
 10
233.0
 20
331.928203
 30
0.0
 11
233.0
 21
318.071797
 31
0.0
  0
LINE
  8
L-ZISSEN
 10
243.0
 20
331.928203
 30
0.0
 11
243.0
 21
318.071797
 31
0.0
  0
LINE
  8
L-TYUSIN
 10
263.0
 20
334.428203
 30
0.0
 11
263.0
 21
315.571797
 31
0.0
  0
LINE
  8
L-ZISSEN
 10
225.0
 20
328.0
 30
0.0
 11
225.0
 21
322.0
 31
0.0
  0
LINE
  8
L-TYUSIN
 10
196.5
 20
325.0
 30
0.0
 11
213.5
 21
325.0
 31
0.0
  0
LINE
  8
L-ZISSEN
 10
243.0
 20
331.928203
 30
0.0
 11
233.0
 21
331.928203
 31
0.0
  0
LINE
  8
L-ZISSEN
 10
243.0
 20
318.071797
 30
0.0
 11
233.0
 21
318.071797
 31
0.0
  0
LINE
  8
L-ZISSEN
 10
243.0
 20
328.464102
 30
0.0
 11
233.0
 21
328.464102
 31
0.0
  0
LINE
  8
L-ZISSEN
 10
243.0
 20
321.535898
 30
0.0
 11
233.0
 21
321.535898
 31
0.0
  0
LINE
  8
L-ZISSEN
 10
233.0
 20
350.0
 30
0.0
 11
243.0
 21
350.0
 31
0.0
  0
CIRCLE
  8
L-ZISSEN
 10
263.0
 20
325.0
 30
0.0
 40
4.283
  0
LINE
  8
L-TYUSIN
 10
239.0
 20
273.5
 30
0.0
 11
239.0
 21
256.5
 31
0.0
  0
LINE
  8
L-ZISSEN
 10
259.0
 20
246.0
 30
0.0
 11
271.0
 21
246.0
 31
0.0
  0
LINE
  8
L-ZISSEN
 10
259.0
 20
234.0
 30
0.0
 11
271.0
 21
234.0
 31
0.0
  0
LINE
  8
L-ZISSEN
 10
271.0
 20
246.0
 30
0.0
 11
271.0
 21
234.0
 31
0.0
  0
LINE
  8
L-ZISSEN
 10
259.0
 20
246.0
 30
0.0
 11
259.0
 21
234.0
 31
0.0
  0
LINE
  8
L-ZISSEN
 10
211.0
 20
246.0
 30
0.0
 11
211.0
 21
234.0
 31
0.0
  0
LINE
  8
L-ZISSEN
 10
199.0
 20
246.0
 30
0.0
 11
199.0
 21
234.0
 31
0.0
  0
LINE
  8
L-ZISSEN
 10
199.0
 20
234.0
 30
0.0
 11
211.0
 21
234.0
 31
0.0
  0
LINE
  8
L-ZISSEN
 10
199.0
 20
246.0
 30
0.0
 11
211.0
 21
246.0
 31
0.0
  0
LINE
  8
L-TYUSIN
 10
196.5
 20
240.0
 30
0.0
 11
213.5
 21
240.0
 31
0.0
  0
LINE
  8
L-ZISSEN
 10
225.0
 20
243.0
 30
0.0
 11
225.0
 21
237.0
 31
0.0
  0
LINE
  8
L-TYUSIN
 10
265.0
 20
248.5
 30
0.0
 11
265.0
 21
231.5
 31
0.0
  0
LINE
  8
L-ZISSEN
 10
245.0
 20
246.0
 30
0.0
 11
245.0
 21
234.0
 31
0.0
  0
LINE
  8
L-ZISSEN
 10
233.0
 20
246.0
 30
0.0
 11
233.0
 21
234.0
 31
0.0
  0
LINE
  8
L-ZISSEN
 10
231.0
 20
244.0
 30
0.0
 11
231.0
 21
236.0
 31
0.0
  0
LINE
  8
L-ZISSEN
 10
245.0
 20
246.0
 30
0.0
 11
233.0
 21
246.0
 31
0.0
  0
LINE
  8
L-ZISSEN
 10
245.0
 20
234.0
 30
0.0
 11
233.0
 21
234.0
 31
0.0
  0
LINE
  8
L-ZISSEN
 10
231.0
 20
244.0
 30
0.0
 11
233.0
 21
244.0
 31
0.0
  0
LINE
  8
L-ZISSEN
 10
231.0
 20
236.0
 30
0.0
 11
233.0
 21
236.0
 31
0.0
  0
LINE
  8
L-ZISSEN
 10
225.0
 20
243.0
 30
0.0
 11
231.0
 21
243.0
 31
0.0
  0
LINE
  8
L-ZISSEN
 10
225.0
 20
237.0
 30
0.0
 11
231.0
 21
237.0
 31
0.0
  0
LINE
  8
L-ZISSEN
 10
245.0
 20
259.0
 30
0.0
 11
233.0
 21
259.0
 31
0.0
  0
LINE
  8
L-ZISSEN
 10
225.0
 20
262.0
 30
0.0
 11
231.0
 21
262.0
 31
0.0
  0
LINE
  8
L-ZISSEN
 10
225.0
 20
268.0
 30
0.0
 11
231.0
 21
268.0
 31
0.0
  0
LINE
  8
L-ZISSEN
 10
231.0
 20
261.0
 30
0.0
 11
233.0
 21
261.0
 31
0.0
  0
LINE
  8
L-ZISSEN
 10
231.0
 20
269.0
 30
0.0
 11
233.0
 21
269.0
 31
0.0
  0
LINE
  8
L-ZISSEN
 10
231.0
 20
269.0
 30
0.0
 11
231.0
 21
261.0
 31
0.0
  0
LINE
  8
L-ZISSEN
 10
233.0
 20
271.0
 30
0.0
 11
233.0
 21
259.0
 31
0.0
  0
LINE
  8
L-ZISSEN
 10
245.0
 20
271.0
 30
0.0
 11
245.0
 21
259.0
 31
0.0
  0
LINE
  8
L-ZISSEN
 10
225.0
 20
268.0
 30
0.0
 11
225.0
 21
262.0
 31
0.0
  0
LINE
  8
L-TYUSIN
 10
247.5
 20
265.0
 30
0.0
 11
222.5
 21
265.0
 31
0.0
  0
LINE
  8
L-TYUSIN
 10
205.0
 20
248.5
 30
0.0
 11
205.0
 21
231.5
 31
0.0
  0
CIRCLE
  8
L-ZISSEN
 10
205.0
 20
240.0
 30
0.0
 40
4.0
  0
CIRCLE
  8
L-ZISSEN
 10
205.0
 20
240.0
 30
0.0
 40
3.0
  0
LINE
  8
L-ZISSEN
 10
245.0
 20
271.0
 30
0.0
 11
233.0
 21
271.0
 31
0.0
  0
LINE
  8
L-ZISSEN
 10
259.0
 20
158.464102
 30
0.0
 11
259.0
 21
151.535898
 31
0.0
  0
LINE
  8
L-ZISSEN
 10
265.0
 20
161.928203
 30
0.0
 11
259.0
 21
158.464102
 31
0.0
  0
LINE
  8
L-ZISSEN
 10
271.0
 20
158.464102
 30
0.0
 11
265.0
 21
161.928203
 31
0.0
  0
LINE
  8
L-ZISSEN
 10
271.0
 20
151.535898
 30
0.0
 11
271.0
 21
158.464102
 31
0.0
  0
LINE
  8
L-ZISSEN
 10
265.0
 20
148.071797
 30
0.0
 11
271.0
 21
151.535898
 31
0.0
  0
LINE
  8
L-ZISSEN
 10
259.0
 20
151.535898
 30
0.0
 11
265.0
 21
148.071797
 31
0.0
  0
LINE
  8
L-ZISSEN
 10
199.0
 20
158.464102
 30
0.0
 11
199.0
 21
151.535898
 31
0.0
  0
LINE
  8
L-ZISSEN
 10
205.0
 20
161.928203
 30
0.0
 11
199.0
 21
158.464102
 31
0.0
  0
LINE
  8
L-ZISSEN
 10
211.0
 20
158.464102
 30
0.0
 11
205.0
 21
161.928203
 31
0.0
  0
LINE
  8
L-ZISSEN
 10
211.0
 20
151.535898
 30
0.0
 11
211.0
 21
158.464102
 31
0.0
  0
LINE
  8
L-ZISSEN
 10
205.0
 20
148.071797
 30
0.0
 11
211.0
 21
151.535898
 31
0.0
  0
LINE
  8
L-ZISSEN
 10
199.0
 20
151.535898
 30
0.0
 11
205.0
 21
148.071797
 31
0.0
  0
LINE
  8
L-ZISSEN
 10
234.0
 20
180.0
 30
0.0
 11
245.0
 21
180.0
 31
0.0
  0
CIRCLE
  8
L-ZISSEN
 10
205.0
 20
155.0
 30
0.0
 40
4.740394
  0
LINE
  8
L-ZISSEN
 10
245.0
 20
174.0
 30
0.0
 11
234.0
 21
174.0
 31
0.0
  0
LINE
  8
L-ZISSEN
 10
245.0
 20
186.0
 30
0.0
 11
234.0
 21
186.0
 31
0.0
  0
LINE
  8
L-TYUSIN
 10
247.5
 20
180.0
 30
0.0
 11
222.5
 21
180.0
 31
0.0
  0
LINE
  8
L-ZISSEN
 10
225.0
 20
184.740394
 30
0.0
 11
225.0
 21
175.259606
 31
0.0
  0
LINE
  8
L-ZISSEN
 10
245.0
 20
186.0
 30
0.0
 11
245.0
 21
174.0
 31
0.0
  0
LINE
  8
L-ZISSEN
 10
234.0
 20
186.0
 30
0.0
 11
234.0
 21
174.0
 31
0.0
  0
LINE
  8
L-ZISSEN
 10
225.0
 20
184.740394
 30
0.0
 11
234.0
 21
185.02061
 31
0.0
  0
LINE
  8
L-ZISSEN
 10
225.0
 20
175.259606
 30
0.0
 11
234.0
 21
174.97939
 31
0.0
  0
LINE
  8
L-ZISSEN
 10
225.0
 20
150.259606
 30
0.0
 11
234.0
 21
149.97939
 31
0.0
  0
LINE
  8
L-ZISSEN
 10
225.0
 20
159.740394
 30
0.0
 11
234.0
 21
160.02061
 31
0.0
  0
LINE
  8
L-TYUSIN
 10
205.0
 20
164.428203
 30
0.0
 11
205.0
 21
145.571797
 31
0.0
  0
LINE
  8
L-ZISSEN
 10
245.0
 20
148.071797
 30
0.0
 11
234.0
 21
148.071797
 31
0.0
  0
LINE
  8
L-ZISSEN
 10
245.0
 20
161.928203
 30
0.0
 11
234.0
 21
161.928203
 31
0.0
  0
LINE
  8
L-ZISSEN
 10
234.0
 20
161.928203
 30
0.0
 11
234.0
 21
148.071797
 31
0.0
  0
LINE
  8
L-ZISSEN
 10
245.0
 20
161.928203
 30
0.0
 11
245.0
 21
148.071797
 31
0.0
  0
LINE
  8
L-TYUSIN
 10
265.0
 20
164.428203
 30
0.0
 11
265.0
 21
145.571797
 31
0.0
  0
LINE
  8
L-ZISSEN
 10
225.0
 20
159.740394
 30
0.0
 11
225.0
 21
150.259606
 31
0.0
  0
LINE
  8
L-TYUSIN
 10
196.5
 20
155.0
 30
0.0
 11
213.5
 21
155.0
 31
0.0
  0
LINE
  8
L-ZISSEN
 10
245.0
 20
158.464102
 30
0.0
 11
234.0
 21
158.464102
 31
0.0
  0
LINE
  8
L-ZISSEN
 10
245.0
 20
151.535898
 30
0.0
 11
234.0
 21
151.535898
 31
0.0
  0
LINE
  8
L-TYUSIN
 10
241.0
 20
104.5
 30
0.0
 11
241.0
 21
85.5
 31
0.0
  0
LINE
  8
L-ZISSEN
 10
248.0
 20
77.0
 30
0.0
 11
234.0
 21
77.0
 31
0.0
  0
LINE
  8
L-ZISSEN
 10
248.0
 20
63.0
 30
0.0
 11
234.0
 21
63.0
 31
0.0
  0
LINE
  8
L-ZISSEN
 10
225.0
 20
74.740394
 30
0.0
 11
225.0
 21
65.259606
 31
0.0
  0
LINE
  8
L-ZISSEN
 10
248.0
 20
77.0
 30
0.0
 11
248.0
 21
63.0
 31
0.0
  0
LINE
  8
L-ZISSEN
 10
225.0
 20
74.740394
 30
0.0
 11
234.0
 21
75.02061
 31
0.0
  0
LINE
  8
L-ZISSEN
 10
225.0
 20
65.259606
 30
0.0
 11
234.0
 21
64.97939
 31
0.0
  0
LINE
  8
L-ZISSEN
 10
261.0
 20
63.0
 30
0.0
 11
275.0
 21
63.0
 31
0.0
  0
LINE
  8
L-ZISSEN
 10
261.0
 20
77.0
 30
0.0
 11
275.0
 21
77.0
 31
0.0
  0
LINE
  8
L-ZISSEN
 10
275.0
 20
77.0
 30
0.0
 11
275.0
 21
63.0
 31
0.0
  0
LINE
  8
L-ZISSEN
 10
261.0
 20
77.0
 30
0.0
 11
261.0
 21
63.0
 31
0.0
  0
LINE
  8
L-ZISSEN
 10
212.0
 20
77.0
 30
0.0
 11
212.0
 21
63.0
 31
0.0
  0
LINE
  8
L-ZISSEN
 10
198.0
 20
77.0
 30
0.0
 11
198.0
 21
63.0
 31
0.0
  0
LINE
  8
L-ZISSEN
 10
198.0
 20
63.0
 30
0.0
 11
212.0
 21
63.0
 31
0.0
  0
LINE
  8
L-ZISSEN
 10
198.0
 20
77.0
 30
0.0
 11
212.0
 21
77.0
 31
0.0
  0
LINE
  8
L-TYUSIN
 10
195.5
 20
70.0
 30
0.0
 11
214.5
 21
70.0
 31
0.0
  0
LINE
  8
L-TYUSIN
 10
268.0
 20
79.5
 30
0.0
 11
268.0
 21
60.5
 31
0.0
  0
LINE
  8
L-TYUSIN
 10
205.0
 20
79.5
 30
0.0
 11
205.0
 21
60.5
 31
0.0
  0
LINE
  8
L-ZISSEN
 10
225.0
 20
90.259606
 30
0.0
 11
234.0
 21
89.97939
 31
0.0
  0
LINE
  8
L-ZISSEN
 10
225.0
 20
99.740394
 30
0.0
 11
234.0
 21
100.02061
 31
0.0
  0
LINE
  8
L-ZISSEN
 10
248.0
 20
102.0
 30
0.0
 11
248.0
 21
88.0
 31
0.0
  0
LINE
  8
L-ZISSEN
 10
225.0
 20
99.740394
 30
0.0
 11
225.0
 21
90.259606
 31
0.0
  0
LINE
  8
L-TYUSIN
 10
250.5
 20
95.0
 30
0.0
 11
222.5
 21
95.0
 31
0.0
  0
LINE
  8
L-ZISSEN
 10
248.0
 20
88.0
 30
0.0
 11
234.0
 21
88.0
 31
0.0
  0
CIRCLE
  8
L-ZISSEN
 10
205.0
 20
70.0
 30
0.0
 40
4.740394
  0
LINE
  8
L-ZISSEN
 10
248.0
 20
102.0
 30
0.0
 11
234.0
 21
102.0
 31
0.0
  0
LINE
  8
L-ZISSEN
 10
234.0
 20
102.0
 30
0.0
 11
234.0
 21
88.0
 31
0.0
  0
LINE
  8
L-ZISSEN
 10
234.0
 20
77.0
 30
0.0
 11
234.0
 21
63.0
 31
0.0
  0
CIRCLE
  8
L-ZISSEN
 10
239.0
 20
265.0
 30
0.0
 40
4.283
  0
CIRCLE
  8
L-ZISSEN
 10
265.0
 20
155.0
 30
0.0
 40
4.283
  0
CIRCLE
  8
L-ZISSEN
 10
241.0
 20
95.0
 30
0.0
 40
4.283
  0
LINE
  8
L-ZISSEN
 10
108.0
 20
350.0
 30
0.0
 11
116.0
 21
350.0
 31
0.0
  0
LINE
  8
L-TYUSIN
 10
50.0
 20
50.0
 30
0.0
 11
50.0
 21
390.0
 31
0.0
  0
LINE
  8
L-TYUSIN
 10
50.0
 20
50.0
 30
0.0
 11
300.0
 21
50.0
 31
0.0
  0
LINE
  8
L-TYUSIN
 10
175.0
 20
50.0
 30
0.0
 11
175.0
 21
390.0
 31
0.0
  0
LINE
  8
L-TYUSIN
 10
300.0
 20
50.0
 30
0.0
 11
300.0
 21
390.0
 31
0.0
  0
LINE
  8
L-TYUSIN
 10
50.0
 20
135.0
 30
0.0
 11
300.0
 21
135.0
 31
0.0
  0
LINE
  8
L-TYUSIN
 10
50.0
 20
220.0
 30
0.0
 11
300.0
 21
220.0
 31
0.0
  0
LINE
  8
L-TYUSIN
 10
50.0
 20
305.0
 30
0.0
 11
300.0
 21
305.0
 31
0.0
  0
LINE
  8
L-TYUSIN
 10
50.0
 20
390.0
 30
0.0
 11
300.0
 21
390.0
 31
0.0
  0
TEXT
  8
L-ZISSEN
 10
54.0
 20
371.0
 30
0.0
 40
4.5
  1
MODEL NO. : NTM- 01-0012
  0
TEXT
  8
L-ZISSEN
 10
120.0
 20
374.0
 30
0.0
 40
4.5
  1
M
  0
TEXT
  8
L-ZISSEN
 10
120.0
 20
368.0
 30
0.0
 40
4.5
  1
P
  0
TEXT
  8
L-ZISSEN
 10
143.0
 20
377.0
 30
0.0
 40
4.5
  1
10
  0
TEXT
  8
L-ZISSEN
 10
143.0
 20
365.0
 30
0.0
 40
4.5
  1
16
  0
LINE
  8
L-TYUSIN
 10
128.5
 20
325.0
 30
0.0
 11
143.5
 21
325.0
 31
0.0
  0
LINE
  8
L-TYUSIN
 10
97.5
 20
325.0
 30
0.0
 11
118.5
 21
325.0
 31
0.0
  0
TEXT
  8
L-ZISSEN
 10
143.0
 20
280.0
 30
0.0
 40
4.5
  1
16
  0
TEXT
  8
L-ZISSEN
 10
143.0
 20
292.0
 30
0.0
 40
4.5
  1
10
  0
TEXT
  8
L-ZISSEN
 10
120.0
 20
283.0
 30
0.0
 40
4.5
  1
P
  0
TEXT
  8
L-ZISSEN
 10
120.0
 20
289.0
 30
0.0
 40
4.5
  1
M
  0
TEXT
  8
L-ZISSEN
 10
54.0
 20
286.0
 30
0.0
 40
4.5
  1
MODEL NO. : NTM- 01-1012
  0
TEXT
  8
L-ZISSEN
 10
142.0
 20
195.0
 30
0.0
 40
4.5
  1
16
  0
TEXT
  8
L-ZISSEN
 10
141.834807
 20
207.0
 30
0.0
 40
4.5
  1
10
  0
TEXT
  8
L-ZISSEN
 10
54.0
 20
201.0
 30
0.0
 40
4.5
  1
MODEL NO. : NTM-101-0012
  0
TEXT
  8
L-ZISSEN
 10
141.0
 20
110.0
 30
0.0
 40
4.5
  1
16
  0
TEXT
  8
L-ZISSEN
 10
141.0
 20
122.0
 30
0.0
 40
4.5
  1
10
  0
TEXT
  8
L-ZISSEN
 10
54.0
 20
116.0
 30
0.0
 40
4.5
  1
MODEL NO. : NTM-101-1012
  0
TEXT
  8
L-ZISSEN
 10
267.0
 20
365.0
 30
0.0
 40
4.5
  1
20
  0
TEXT
  8
L-ZISSEN
 10
267.0
 20
377.0
 30
0.0
 40
4.5
  1
12
  0
TEXT
  8
L-ZISSEN
 10
243.318994
 20
368.0
 30
0.0
 40
4.5
  1
P
  0
TEXT
  8
L-ZISSEN
 10
243.318994
 20
374.0
 30
0.0
 40
4.5
  1
M
  0
TEXT
  8
L-ZISSEN
 10
179.0
 20
371.0
 30
0.0
 40
4.5
  1
MODEL NO. : NT1- 01-0016
  0
LINE
  8
L-TYUSIN
 10
130.5
 20
240.0
 30
0.0
 11
145.5
 21
240.0
 31
0.0
  0
LINE
  8
L-TYUSIN
 10
97.5
 20
240.0
 30
0.0
 11
120.5
 21
240.0
 31
0.0
  0
LINE
  8
L-TYUSIN
 10
126.5
 20
155.0
 30
0.0
 11
141.5
 21
155.0
 31
0.0
  0
LINE
  8
L-TYUSIN
 10
97.5
 20
155.0
 30
0.0
 11
116.5
 21
155.0
 31
0.0
  0
LINE
  8
L-TYUSIN
 10
97.5
 20
70.0
 30
0.0
 11
121.5
 21
70.0
 31
0.0
  0
LINE
  8
L-TYUSIN
 10
131.5
 20
70.0
 30
0.0
 11
146.5
 21
70.0
 31
0.0
  0
LINE
  8
L-TYUSIN
 10
222.5
 20
325.0
 30
0.0
 11
245.5
 21
325.0
 31
0.0
  0
LINE
  8
L-TYUSIN
 10
254.5
 20
325.0
 30
0.0
 11
271.5
 21
325.0
 31
0.0
  0
TEXT
  8
L-ZISSEN
 10
267.0
 20
383.0
 30
0.0
 40
4.5
  1
10
  0
TEXT
  8
L-ZISSEN
 10
267.0
 20
359.0
 30
0.0
 40
4.5
  1
24
  0
TEXT
  8
L-ZISSEN
 10
266.0
 20
298.0
 30
0.0
 40
4.5
  1
10
  0
TEXT
  8
L-ZISSEN
 10
179.0
 20
286.0
 30
0.0
 40
4.5
  1
MODEL NO. : NT1- 01-1016
  0
TEXT
  8
L-ZISSEN
 10
243.318994
 20
289.0
 30
0.0
 40
4.5
  1
M
  0
TEXT
  8
L-ZISSEN
 10
243.318994
 20
283.0
 30
0.0
 40
4.5
  1
P
  0
TEXT
  8
L-ZISSEN
 10
266.0
 20
292.0
 30
0.0
 40
4.5
  1
12
  0
TEXT
  8
L-ZISSEN
 10
266.0
 20
280.0
 30
0.0
 40
4.5
  1
20
  0
TEXT
  8
L-ZISSEN
 10
266.0
 20
274.0
 30
0.0
 40
4.5
  1
24
  0
TEXT
  8
L-ZISSEN
 10
265.0
 20
213.0
 30
0.0
 40
4.5
  1
10
  0
TEXT
  8
L-ZISSEN
 10
179.0
 20
201.0
 30
0.0
 40
4.5
  1
MODEL NO. : NT1-101-0016
  0
TEXT
  8
L-ZISSEN
 10
265.0
 20
207.0
 30
0.0
 40
4.5
  1
12
  0
TEXT
  8
L-ZISSEN
 10
265.0
 20
195.0
 30
0.0
 40
4.5
  1
20
  0
TEXT
  8
L-ZISSEN
 10
265.0
 20
189.0
 30
0.0
 40
4.5
  1
24
  0
TEXT
  8
L-ZISSEN
 10
264.0
 20
128.0
 30
0.0
 40
4.5
  1
10
  0
TEXT
  8
L-ZISSEN
 10
179.0
 20
116.0
 30
0.0
 40
4.5
  1
MODEL NO. : NT1-101-1016
  0
TEXT
  8
L-ZISSEN
 10
264.0
 20
122.0
 30
0.0
 40
4.5
  1
12
  0
TEXT
  8
L-ZISSEN
 10
264.0
 20
110.0
 30
0.0
 40
4.5
  1
20
  0
TEXT
  8
L-ZISSEN
 10
264.0
 20
104.0
 30
0.0
 40
4.5
  1
24
  0
LINE
  8
L-TYUSIN
 10
222.5
 20
240.0
 30
0.0
 11
247.5
 21
240.0
 31
0.0
  0
LINE
  8
L-TYUSIN
 10
256.5
 20
240.0
 30
0.0
 11
273.5
 21
240.0
 31
0.0
  0
LINE
  8
L-TYUSIN
 10
222.5
 20
155.0
 30
0.0
 11
247.5
 21
155.0
 31
0.0
  0
LINE
  8
L-TYUSIN
 10
256.5
 20
155.0
 30
0.0
 11
273.5
 21
155.0
 31
0.0
  0
LINE
  8
L-TYUSIN
 10
258.5
 20
70.0
 30
0.0
 11
277.5
 21
70.0
 31
0.0
  0
LINE
  8
L-TYUSIN
 10
222.5
 20
70.0
 30
0.0
 11
250.5
 21
70.0
 31
0.0
  0
LINE
  8
L-ZISSEN
 10
137.38675
 20
327.080126
 30
0.0
 11
144.0
 21
337.0
 31
0.0
  0
SOLID
  8
L-ZISSEN
 10
138.773501
 20
328.559326
 30
0.0
 11
138.218801
 21
328.929126
 31
0.0
 12
137.38675
 22
327.080126
 32
0.0
 13
137.38675
 23
327.080126
 33
0.0
  0
LINE
  8
L-ZISSEN
 10
144.0
 20
337.0
 30
0.0
 11
146.0
 21
337.0
 31
0.0
  0
TEXT
  8
L-ZISSEN
 10
148.0
 20
334.75
 30
0.0
 40
4.5
  1
M5P0.8
  0
LINE
  8
L-ZISSEN
 10
101.871245
 20
328.0
 30
0.0
 11
84.0
 21
351.0
 31
0.0
  0
SOLID
  8
L-ZISSEN
 10
100.907334
 20
329.783812
 30
0.0
 11
100.380903
 21
329.37477
 31
0.0
 12
101.871245
 22
328.0
 32
0.0
 13
101.871245
 23
328.0
 33
0.0
  0
LINE
  8
L-ZISSEN
 10
84.0
 20
351.0
 30
0.0
 11
82.0
 21
351.0
 31
0.0
  0
TEXT
  8
L-ZISSEN
 10
53.75
 20
348.75
 30
0.0
 40
4.5
  1
M6P0.75
  0
TEXT
  8
L-ZISSEN
 10
53.75
 20
341.75
 30
0.0
 40
4.5
  1
M6P1.0
  0
LINE
  8
L-ZISSEN
 10
115.349484
 20
264.145642
 30
0.0
 11
135.0
 21
257.0
 31
0.0
  0
SOLID
  8
L-ZISSEN
 10
117.115156
 20
263.148892
 30
0.0
 11
117.342985
 21
263.775421
 31
0.0
 12
115.349484
 22
264.145642
 32
0.0
 13
115.349484
 23
264.145642
 33
0.0
  0
LINE
  8
L-ZISSEN
 10
135.0
 20
257.0
 30
0.0
 11
137.0
 21
257.0
 31
0.0
  0
TEXT
  8
L-ZISSEN
 10
139.0
 20
254.75
 30
0.0
 40
4.5
  1
M5P0.8
  0
SOLID
  8
L-ZISSEN
 10
100.907334
 20
244.783812
 30
0.0
 11
100.380903
 21
244.37477
 31
0.0
 12
101.871245
 22
243.0
 32
0.0
 13
101.871245
 23
243.0
 33
0.0
  0
LINE
  8
L-ZISSEN
 10
101.871245
 20
243.0
 30
0.0
 11
84.0
 21
266.0
 31
0.0
  0
LINE
  8
L-ZISSEN
 10
84.0
 20
266.0
 30
0.0
 11
82.0
 21
266.0
 31
0.0
  0
TEXT
  8
L-ZISSEN
 10
53.75
 20
263.75
 30
0.0
 40
4.5
  1
M6P0.75
  0
TEXT
  8
L-ZISSEN
 10
53.75
 20
256.75
 30
0.0
 40
4.5
  1
M6P1.0
  0
LINE
  8
L-TYUSIN
 10
103.97
 20
161.0
 30
0.0
 11
103.97
 21
149.0
 31
0.0
  0
LINE
  8
L-ZISSEN
 10
135.286239
 20
157.143732
 30
0.0
 11
143.0
 21
170.0
 31
0.0
  0
SOLID
  8
L-ZISSEN
 10
136.601062
 20
158.68722
 30
0.0
 11
136.0294
 21
159.030217
 31
0.0
 12
135.286239
 22
157.143732
 32
0.0
 13
135.286239
 23
157.143732
 33
0.0
  0
LINE
  8
L-ZISSEN
 10
143.0
 20
170.0
 30
0.0
 11
145.0
 21
170.0
 31
0.0
  0
TEXT
  8
L-ZISSEN
 10
147.0
 20
167.75
 30
0.0
 40
4.5
  1
M5P0.8
  0
LINE
  8
L-ZISSEN
 10
101.535218
 20
159.788193
 30
0.0
 11
86.0
 21
177.0
 31
0.0
  0
SOLID
  8
L-ZISSEN
 10
100.442611
 20
161.496209
 30
0.0
 11
99.947719
 21
161.049525
 31
0.0
 12
101.535218
 22
159.788193
 32
0.0
 13
101.535218
 23
159.788193
 33
0.0
  0
LINE
  8
L-ZISSEN
 10
86.0
 20
177.0
 30
0.0
 11
84.0
 21
177.0
 31
0.0
  0
TEXT
  8
L-ZISSEN
 10
62.5
 20
174.75
 30
0.0
 40
4.5
  1
R 1/8
  0
LINE
  8
L-TYUSIN
 10
103.97
 20
76.0
 30
0.0
 11
103.97
 21
64.0
 31
0.0
  0
LINE
  8
L-TYUSIN
 10
103.97
 20
186.0
 30
0.0
 11
103.97
 21
174.0
 31
0.0
  0
LINE
  8
L-TYUSIN
 10
103.97
 20
101.0
 30
0.0
 11
103.97
 21
89.0
 31
0.0
  0
LINE
  8
L-ZISSEN
 10
116.381621
 20
94.239816
 30
0.0
 11
132.797719
 21
89.0
 31
0.0
  0
SOLID
  8
L-ZISSEN
 10
118.18556
 20
93.314119
 30
0.0
 11
118.388276
 21
93.949218
 31
0.0
 12
116.381621
 22
94.239816
 32
0.0
 13
116.381621
 23
94.239816
 33
0.0
  0
LINE
  8
L-ZISSEN
 10
132.797719
 20
89.0
 30
0.0
 11
134.797719
 21
89.0
 31
0.0
  0
TEXT
  8
L-ZISSEN
 10
136.797719
 20
86.75
 30
0.0
 40
4.5
  1
M5P0.8
  0
SOLID
  8
L-ZISSEN
 10
100.442611
 20
76.496209
 30
0.0
 11
99.947719
 21
76.049525
 31
0.0
 12
101.535218
 22
74.788193
 32
0.0
 13
101.535218
 23
74.788193
 33
0.0
  0
LINE
  8
L-ZISSEN
 10
101.535218
 20
74.788193
 30
0.0
 11
86.0
 21
92.0
 31
0.0
  0
LINE
  8
L-ZISSEN
 10
86.0
 20
92.0
 30
0.0
 11
84.0
 21
92.0
 31
0.0
  0
TEXT
  8
L-ZISSEN
 10
62.5
 20
89.75
 30
0.0
 40
4.5
  1
R 1/8
  0
LINE
  8
L-ZISSEN
 10
265.203585
 20
328.672642
 30
0.0
 11
272.0
 21
340.0
 31
0.0
  0
SOLID
  8
L-ZISSEN
 10
266.518408
 20
330.216129
 30
0.0
 11
265.946746
 21
330.559127
 31
0.0
 12
265.203585
 22
328.672642
 32
0.0
 13
265.203585
 23
328.672642
 33
0.0
  0
LINE
  8
L-ZISSEN
 10
272.0
 20
340.0
 30
0.0
 11
274.0
 21
340.0
 31
0.0
  0
TEXT
  8
L-ZISSEN
 10
276.0
 20
337.75
 30
0.0
 40
4.5
  1
Rc1/8
  0
TEXT
  8
L-ZISSEN
 10
178.75
 20
348.75
 30
0.0
 40
4.5
  1
M6P0.75
  0
TEXT
  8
L-ZISSEN
 10
178.75
 20
341.75
 30
0.0
 40
4.5
  1
M6P1.0
  0
LINE
  8
L-ZISSEN
 10
209.0
 20
351.0
 30
0.0
 11
207.0
 21
351.0
 31
0.0
  0
LINE
  8
L-ZISSEN
 10
226.871245
 20
328.0
 30
0.0
 11
209.0
 21
351.0
 31
0.0
  0
SOLID
  8
L-ZISSEN
 10
225.907334
 20
329.783812
 30
0.0
 11
225.380903
 21
329.37477
 31
0.0
 12
226.871245
 22
328.0
 32
0.0
 13
226.871245
 23
328.0
 33
0.0
  0
SOLID
  8
L-ZISSEN
 10
225.907334
 20
244.783812
 30
0.0
 11
225.380903
 21
244.37477
 31
0.0
 12
226.871245
 22
243.0
 32
0.0
 13
226.871245
 23
243.0
 33
0.0
  0
LINE
  8
L-ZISSEN
 10
226.871245
 20
243.0
 30
0.0
 11
209.0
 21
266.0
 31
0.0
  0
LINE
  8
L-ZISSEN
 10
209.0
 20
266.0
 30
0.0
 11
207.0
 21
266.0
 31
0.0
  0
TEXT
  8
L-ZISSEN
 10
178.75
 20
263.75
 30
0.0
 40
4.5
  1
M6P0.75
  0
TEXT
  8
L-ZISSEN
 10
178.75
 20
256.75
 30
0.0
 40
4.5
  1
M6P1.0
  0
LINE
  8
L-ZISSEN
 10
243.002411
 20
263.475272
 30
0.0
 11
260.0
 21
257.0
 31
0.0
  0
SOLID
  8
L-ZISSEN
 10
244.752721
 20
262.451785
 30
0.0
 11
244.990052
 21
263.074777
 31
0.0
 12
243.002411
 22
263.475272
 32
0.0
 13
243.002411
 23
263.475272
 33
0.0
  0
LINE
  8
L-ZISSEN
 10
260.0
 20
257.0
 30
0.0
 11
262.0
 21
257.0
 31
0.0
  0
TEXT
  8
L-ZISSEN
 10
264.0
 20
254.75
 30
0.0
 40
4.5
  1
Rc1/8
  0
LINE
  8
L-TYUSIN
 10
228.97
 20
161.0
 30
0.0
 11
228.97
 21
149.0
 31
0.0
  0
LINE
  8
L-TYUSIN
 10
228.97
 20
186.0
 30
0.0
 11
228.97
 21
174.0
 31
0.0
  0
SOLID
  8
L-ZISSEN
 10
225.442611
 20
161.496209
 30
0.0
 11
224.947719
 21
161.049525
 31
0.0
 12
226.535218
 22
159.788193
 32
0.0
 13
226.535218
 23
159.788193
 33
0.0
  0
LINE
  8
L-ZISSEN
 10
226.535218
 20
159.788193
 30
0.0
 11
211.0
 21
177.0
 31
0.0
  0
TEXT
  8
L-ZISSEN
 10
187.5
 20
174.75
 30
0.0
 40
4.5
  1
R 1/8
  0
LINE
  8
L-ZISSEN
 10
211.0
 20
177.0
 30
0.0
 11
209.0
 21
177.0
 31
0.0
  0
LINE
  8
L-TYUSIN
 10
228.97
 20
76.0
 30
0.0
 11
228.97
 21
64.0
 31
0.0
  0
LINE
  8
L-TYUSIN
 10
228.97
 20
101.0
 30
0.0
 11
228.97
 21
89.0
 31
0.0
  0
LINE
  8
L-ZISSEN
 10
226.535218
 20
74.788193
 30
0.0
 11
211.0
 21
92.0
 31
0.0
  0
SOLID
  8
L-ZISSEN
 10
225.442611
 20
76.496209
 30
0.0
 11
224.947719
 21
76.049525
 31
0.0
 12
226.535218
 22
74.788193
 32
0.0
 13
226.535218
 23
74.788193
 33
0.0
  0
TEXT
  8
L-ZISSEN
 10
187.5
 20
89.75
 30
0.0
 40
4.5
  1
R 1/8
  0
LINE
  8
L-ZISSEN
 10
211.0
 20
92.0
 30
0.0
 11
209.0
 21
92.0
 31
0.0
  0
LINE
  8
L-ZISSEN
 10
267.015529
 20
158.779118
 30
0.0
 11
273.0
 21
170.0
 31
0.0
  0
SOLID
  8
L-ZISSEN
 10
268.250824
 20
160.386961
 30
0.0
 11
267.662588
 21
160.700686
 31
0.0
 12
267.015529
 22
158.779118
 32
0.0
 13
267.015529
 23
158.779118
 33
0.0
  0
LINE
  8
L-ZISSEN
 10
273.0
 20
170.0
 30
0.0
 11
275.0
 21
170.0
 31
0.0
  0
TEXT
  8
L-ZISSEN
 10
277.0
 20
167.75
 30
0.0
 40
4.5
  1
Rc1/8
  0
LINE
  8
L-ZISSEN
 10
245.063211
 20
93.645596
 30
0.0
 11
259.0
 21
89.0
 31
0.0
  0
SOLID
  8
L-ZISSEN
 10
246.855168
 20
92.696913
 30
0.0
 11
247.065986
 21
93.329369
 31
0.0
 12
245.063211
 22
93.645596
 32
0.0
 13
245.063211
 23
93.645596
 33
0.0
  0
LINE
  8
L-ZISSEN
 10
259.0
 20
89.0
 30
0.0
 11
261.0
 21
89.0
 31
0.0
  0
TEXT
  8
L-ZISSEN
 10
263.0
 20
86.75
 30
0.0
 40
4.5
  1
Rc1/8
  0
CIRCLE
  8
L-ZISSEN
 10
80.0
 20
325.0
 30
0.0
 40
0.5
  0
CIRCLE
  8
L-ZISSEN
 10
80.0
 20
240.0
 30
0.0
 40
0.5
  0
CIRCLE
  8
L-ZISSEN
 10
80.0
 20
155.0
 30
0.0
 40
0.5
  0
CIRCLE
  8
L-ZISSEN
 10
80.0
 20
70.0
 30
0.0
 40
0.5
  0
CIRCLE
  8
L-ZISSEN
 10
205.0
 20
325.0
 30
0.0
 40
0.5
  0
CIRCLE
  8
L-ZISSEN
 10
205.0
 20
240.0
 30
0.0
 40
0.5
  0
CIRCLE
  8
L-ZISSEN
 10
205.0
 20
155.0
 30
0.0
 40
0.5
  0
CIRCLE
  8
L-ZISSEN
 10
205.0
 20
70.0
 30
0.0
 40
0.5
  0
LINE
  8
L-TYUSIN
 10
241.0
 20
79.5
 30
0.0
 11
241.0
 21
74.5
 31
0.0
  0
LINE
  8
L-TYUSIN
 10
239.0
 20
248.5
 30
0.0
 11
239.0
 21
243.5
 31
0.0
  0
LINE
  8
L-TYUSIN
 10
113.0
 20
247.5
 30
0.0
 11
113.0
 21
242.5
 31
0.0
  0
LINE
  8
L-TYUSIN
 10
114.0
 20
77.5
 30
0.0
 11
114.0
 21
72.5
 31
0.0
  0
ENDBLK
  8
L-ZISSEN
  0
ENDSEC
  0
SECTION
  2
ENTITIES
  0
INSERT
  8
L-ZISSEN
  2
DCAT-07
 10
0.0
 20
0.0
 30
0.0
  0
ENDSEC
  0
EOF
