  0
SECTION
  2
HEADER
  9
$ACADVER
  1
AC1006
  9
$INSBASE
 10
0.0
 20
0.0
 30
0.0
  9
$EXTMIN
 10
39.175003
 20
54.0
  9
$EXTMAX
 10
387.865289
 20
353.658295
  9
$LIMMIN
 10
0.0
 20
0.0
  9
$LIMMAX
 10
12.0
 20
9.0
  9
$ORTHOMODE
 70
     0
  9
$REGENMODE
 70
     1
  9
$FILLMODE
 70
     1
  9
$QTEXTMODE
 70
     0
  9
$MIRRTEXT
 70
     1
  9
$DRAGMODE
 70
     2
  9
$LTSCALE
 40
1.0
  9
$OSMODE
 70
     0
  9
$ATTMODE
 70
     1
  9
$TEXTSIZE
 40
4.5
  9
$TRACEWID
 40
0.05
  9
$TEXTSTYLE
  7
STANDARD
  9
$CLAYER
  8
L-ZISSEN
  9
$CELTYPE
  6
BYLAYER
  9
$CECOLOR
 62
   256
  9
$DIMSCALE
 40
1.0
  9
$DIMASZ
 40
2.0
  9
$DIMEXO
 40
1.0
  9
$DIMDLI
 40
0.38
  9
$DIMRND
 40
0.0
  9
$DIMDLE
 40
0.0
  9
$DIMEXE
 40
1.0
  9
$DIMTP
 40
0.0
  9
$DIMTM
 40
0.0
  9
$DIMTXT
 40
4.5
  9
$DIMCEN
 40
0.09
  9
$DIMTSZ
 40
0.0
  9
$DIMTOL
 70
     0
  9
$DIMLIM
 70
     0
  9
$DIMTIH
 70
     0
  9
$DIMTOH
 70
     0
  9
$DIMSE1
 70
     0
  9
$DIMSE2
 70
     0
  9
$DIMTAD
 70
     1
  9
$DIMZIN
 70
     0
  9
$DIMBLK
  1

  9
$DIMASO
 70
     1
  9
$DIMSHO
 70
     0
  9
$DIMPOST
  1

  9
$DIMAPOST
  1

  9
$DIMALT
 70
     0
  9
$DIMALTD
 70
     2
  9
$DIMALTF
 40
25.4
  9
$DIMLFAC
 40
1.0
  9
$DIMTOFL
 70
     1
  9
$DIMTVP
 40
0.0
  9
$DIMTIX
 70
     0
  9
$DIMSOXD
 70
     0
  9
$DIMSAH
 70
     0
  9
$DIMBLK1
  1

  9
$DIMBLK2
  1

  9
$LUNITS
 70
     2
  9
$LUPREC
 70
     4
  9
$AXISMODE
 70
     0
  9
$AXISUNIT
 10
0.0
 20
0.0
  9
$SKETCHINC
 40
0.1
  9
$FILLETRAD
 40
0.0
  9
$AUNITS
 70
     0
  9
$AUPREC
 70
     0
  9
$MENU
  1
acad
  9
$ELEVATION
 40
0.0
  9
$THICKNESS
 40
0.0
  9
$LIMCHECK
 70
     0
  9
$BLIPMODE
 70
     1
  9
$CHAMFERA
 40
0.0
  9
$CHAMFERB
 40
0.0
  9
$SKPOLY
 70
     0
  9
$TDCREATE
 40
2449237.6991791665
  9
$TDUPDATE
 40
2449650.3766947915
  9
$TDINDWG
 40
0.0016898148
  9
$TDUSRTIMER
 40
0.0016898148
  9
$USRTIMER
 70
     1
  9
$ANGBASE
 50
0.0
  9
$ANGDIR
 70
     0
  9
$PDMODE
 70
     0
  9
$PDSIZE
 40
0.0
  9
$PLINEWID
 40
0.0
  9
$COORDS
 70
     0
  9
$SPLFRAME
 70
     0
  9
$SPLINETYPE
 70
     6
  9
$SPLINESEGS
 70
     8
  9
$ATTDIA
 70
     0
  9
$ATTREQ
 70
     1
  9
$HANDLING
 70
     0
  9
$HANDSEED
  5
0
  9
$SURFTAB1
 70
     6
  9
$SURFTAB2
 70
     6
  9
$SURFTYPE
 70
     6
  9
$SURFU
 70
     6
  9
$SURFV
 70
     6
  9
$FLATLAND
 70
     0
  9
$UCSNAME
  2

  9
$UCSORG
 10
0.0
 20
0.0
 30
0.0
  9
$UCSXDIR
 10
1.0
 20
0.0
 30
0.0
  9
$UCSYDIR
 10
0.0
 20
1.0
 30
0.0
  9
$USERI1
 70
     0
  9
$USERI2
 70
     0
  9
$USERI3
 70
     0
  9
$USERI4
 70
     0
  9
$USERI5
 70
     0
  9
$USERR1
 40
0.0
  9
$USERR2
 40
0.0
  9
$USERR3
 40
0.0
  9
$USERR4
 40
0.0
  9
$USERR5
 40
0.0
  9
$WORLDVIEW
 70
     1
  0
ENDSEC
  0
SECTION
  2
TABLES
  0
TABLE
  2
VPORT
 70
     2
  0
VPORT
  2
*ACTIVE
 70
     0
 10
0.0
 20
0.0
 11
1.0
 21
1.0
 12
262.194757
 22
109.711481
 13
0.0
 23
0.0
 14
1.0
 24
1.0
 15
0.0
 25
0.0
 16
0.0
 26
0.0
 36
1.0
 17
0.0
 27
0.0
 37
0.0
 40
152.831066
 41
1.5487
 42
50.0
 43
0.0
 44
0.0
 50
0.0
 51
0.0
 71
     0
 72
   100
 73
     1
 74
     0
 75
     0
 76
     0
 77
     0
 78
     0
  0
ENDTAB
  0
TABLE
  2
LTYPE
 70
     2
  0
LTYPE
  2
CONTINUOUS
 70
    64
  3
Solid line
 72
    65
 73
     0
 40
0.0
  0
LTYPE
  2
CENTER
 70
    64
  3
____ _ ____ _ ____
 72
    65
 73
     4
 40
8.0
 49
5.0
 49
-1.0
 49
1.0
 49
-1.0
  0
ENDTAB
  0
TABLE
  2
LAYER
 70
     3
  0
LAYER
  2
0
 70
     0
 62
     7
  6
CONTINUOUS
  0
LAYER
  2
L-ZISSEN
 70
    64
 62
     7
  6
CONTINUOUS
  0
LAYER
  2
L-TYUSIN
 70
    64
 62
     1
  6
CENTER
  0
ENDTAB
  0
TABLE
  2
STYLE
 70
     1
  0
STYLE
  2
STANDARD
 70
    64
 40
0.0
 41
1.0
 50
0.0
 71
     0
 42
4.5
  3
txt
  4

  0
ENDTAB
  0
TABLE
  2
VIEW
 70
     0
  0
ENDTAB
  0
TABLE
  2
UCS
 70
     0
  0
ENDTAB
  0
TABLE
  2
DWGMGR
 70
     0
  0
ENDTAB
  0
ENDSEC
  0
SECTION
  2
BLOCKS
  0
ENDSEC
  0
SECTION
  2
ENTITIES
  0
TEXT
  8
L-ZISSEN
 10
130.891977
 20
184.884182
 30
0.0
 40
4.5
  1
Rc1
  0
TEXT
  8
L-ZISSEN
 10
130.891977
 20
191.943743
 30
0.0
 40
4.5
  1
Rc3/4
  0
TEXT
  8
L-ZISSEN
 10
130.959184
 20
200.013477
 30
0.0
 40
4.5
  1
IN
  0
LINE
  8
L-ZISSEN
 10
126.959184
 20
202.263477
 30
0.0
 11
128.959184
 21
202.263477
 31
0.0
  0
LINE
  8
L-ZISSEN
 10
101.10326
 20
163.168178
 30
0.0
 11
126.959184
 21
202.263477
 31
0.0
  0
SOLID
  8
L-ZISSEN
 10
101.38129
 20
162.984301
 30
0.0
 11
100.82523
 21
163.352055
 31
0.0
 12
100.0
 22
161.5
 32
0.0
 13
100.0
 23
161.5
 33
0.0
  0
TEXT
  8
L-ZISSEN
 10
234.853468
 20
264.096818
 30
0.0
 40
4.5
  1
QEV-3310
  0
TEXT
  8
L-ZISSEN
 10
234.853468
 20
271.096818
 30
0.0
 40
4.5
  1
QEV-3306
  0
TEXT
  8
L-ZISSEN
 10
234.853468
 20
280.682746
 30
0.0
 40
4.5
  1
MODEL NO.
  0
CIRCLE
  8
L-ZISSEN
 10
280.0
 20
100.0
 30
0.0
 40
13.2205
  0
CIRCLE
  8
L-ZISSEN
 10
100.0
 20
280.0
 30
0.0
 40
13.2205
  0
LINE
  8
L-ZISSEN
 10
280.0
 20
74.0
 30
0.0
 11
280.0
 21
59.0
 31
0.0
  0
LINE
  8
L-ZISSEN
 10
160.0
 20
256.0
 30
0.0
 11
138.953545
 21
256.0
 31
0.0
  0
LINE
  8
L-ZISSEN
 10
160.0
 20
304.0
 30
0.0
 11
138.953545
 21
304.0
 31
0.0
  0
LINE
  8
L-ZISSEN
 10
160.0
 20
256.0
 30
0.0
 11
160.0
 21
304.0
 31
0.0
  0
LINE
  8
L-ZISSEN
 10
145.0
 20
76.0
 30
0.0
 11
145.0
 21
74.0
 31
0.0
  0
CIRCLE
  8
L-ZISSEN
 10
131.112698
 20
311.112698
 30
0.0
 40
7.5
  0
ARC
  8
L-ZISSEN
 10
142.934833
 20
303.613557
 30
0.0
 40
4.0
 50
147.611796
 51
208.810178
  0
ARC
  8
L-ZISSEN
 10
136.701115
 20
298.276437
 30
0.0
 40
4.0
 50
26.472406
 51
113.526465
  0
ARC
  8
L-ZISSEN
 10
118.276437
 20
316.701115
 30
0.0
 40
4.0
 50
336.473535
 51
63.527594
  0
ARC
  8
L-ZISSEN
 10
123.613557
 20
322.934833
 30
0.0
 40
4.0
 50
241.189822
 51
302.388204
  0
ARC
  8
L-ZISSEN
 10
76.386443
 20
322.934833
 30
0.0
 40
4.0
 50
237.611796
 51
298.810178
  0
ARC
  8
L-ZISSEN
 10
81.723563
 20
316.701115
 30
0.0
 40
4.0
 50
116.472406
 51
203.526465
  0
ARC
  8
L-ZISSEN
 10
63.298885
 20
298.276437
 30
0.0
 40
4.0
 50
66.473535
 51
153.527594
  0
LINE
  8
L-ZISSEN
 10
235.0
 20
146.5
 30
0.0
 11
242.387302
 21
146.5
 31
0.0
  0
LINE
  8
L-ZISSEN
 10
238.887302
 20
137.0
 30
0.0
 11
258.314081
 21
137.0
 31
0.0
  0
LINE
  8
L-ZISSEN
 10
258.314081
 20
137.0
 30
0.0
 11
258.314081
 21
146.5
 31
0.0
  0
LINE
  8
L-ZISSEN
 10
301.685919
 20
137.0
 30
0.0
 11
301.685919
 21
146.5
 31
0.0
  0
LINE
  8
L-ZISSEN
 10
304.612698
 20
147.0
 30
0.0
 11
317.612698
 21
147.0
 31
0.0
  0
LINE
  8
L-ZISSEN
 10
137.612698
 20
147.0
 30
0.0
 11
124.612698
 21
147.0
 31
0.0
  0
LINE
  8
L-ZISSEN
 10
55.0
 20
146.5
 30
0.0
 11
62.387302
 21
146.5
 31
0.0
  0
LINE
  8
L-ZISSEN
 10
62.387302
 20
147.0
 30
0.0
 11
75.387302
 21
147.0
 31
0.0
  0
CIRCLE
  8
L-ZISSEN
 10
131.112698
 20
248.887302
 30
0.0
 40
7.5
  0
ARC
  8
L-ZISSEN
 10
142.934833
 20
256.386443
 30
0.0
 40
4.0
 50
151.189822
 51
212.388204
  0
ARC
  8
L-ZISSEN
 10
136.701115
 20
261.723563
 30
0.0
 40
4.0
 50
246.473535
 51
333.527594
  0
ARC
  8
L-ZISSEN
 10
118.276437
 20
243.298885
 30
0.0
 40
4.0
 50
296.472406
 51
23.526465
  0
ARC
  8
L-ZISSEN
 10
123.613557
 20
237.065167
 30
0.0
 40
4.0
 50
57.611796
 51
118.810178
  0
CIRCLE
  8
L-ZISSEN
 10
68.887302
 20
248.887302
 30
0.0
 40
7.5
  0
ARC
  8
L-ZISSEN
 10
76.386443
 20
237.065167
 30
0.0
 40
4.0
 50
61.189822
 51
122.388204
  0
ARC
  8
L-ZISSEN
 10
81.723563
 20
243.298885
 30
0.0
 40
4.0
 50
156.473535
 51
243.527594
  0
ARC
  8
L-ZISSEN
 10
57.065167
 20
256.386443
 30
0.0
 40
4.0
 50
327.611796
 51
28.810178
  0
ARC
  8
L-ZISSEN
 10
63.298885
 20
261.723563
 30
0.0
 40
4.0
 50
206.472406
 51
293.526465
  0
ARC
  8
L-ZISSEN
 10
131.112698
 20
248.887302
 30
0.0
 40
10.0
 50
66.473535
 51
203.526465
  0
ARC
  8
L-ZISSEN
 10
131.112698
 20
248.887302
 30
0.0
 40
10.0
 50
237.611796
 51
32.388204
  0
ARC
  8
L-ZISSEN
 10
68.887302
 20
248.887302
 30
0.0
 40
10.0
 50
336.473535
 51
113.526465
  0
ARC
  8
L-ZISSEN
 10
68.887302
 20
248.887302
 30
0.0
 40
10.0
 50
147.611795
 51
302.388204
  0
ARC
  8
L-ZISSEN
 10
131.112698
 20
311.112698
 30
0.0
 40
10.0
 50
327.611796
 51
122.388204
  0
ARC
  8
L-ZISSEN
 10
131.112698
 20
311.112698
 30
0.0
 40
10.0
 50
156.473535
 51
293.526465
  0
CIRCLE
  8
L-ZISSEN
 10
68.887302
 20
311.112698
 30
0.0
 40
7.5
  0
ARC
  8
L-ZISSEN
 10
68.887302
 20
311.112698
 30
0.0
 40
10.0
 50
57.611796
 51
212.388203
  0
ARC
  8
L-ZISSEN
 10
57.065167
 20
303.613557
 30
0.0
 40
4.0
 50
331.189822
 51
32.388204
  0
ARC
  8
L-ZISSEN
 10
68.887302
 20
311.112698
 30
0.0
 40
10.0
 50
246.473535
 51
23.526465
  0
ARC
  8
L-ZISSEN
 10
100.0
 20
280.0
 30
0.0
 40
45.0
 50
331.189823
 51
28.810178
  0
ARC
  8
L-ZISSEN
 10
100.0
 20
280.0
 30
0.0
 40
45.0
 50
61.189822
 51
118.810178
  0
LINE
  8
L-TYUSIN
 10
100.0
 20
330.0
 30
0.0
 11
100.0
 21
230.0
 31
0.0
  0
LINE
  8
L-TYUSIN
 10
50.0
 20
280.0
 30
0.0
 11
165.0
 21
280.0
 31
0.0
  0
LINE
  8
L-ZISSEN
 10
71.132487
 20
280.0
 30
0.0
 11
85.566243
 21
255.0
 31
0.0
  0
LINE
  8
L-ZISSEN
 10
114.433757
 20
255.0
 30
0.0
 11
85.566243
 21
255.0
 31
0.0
  0
LINE
  8
L-ZISSEN
 10
128.867513
 20
280.0
 30
0.0
 11
114.433757
 21
255.0
 31
0.0
  0
LINE
  8
L-ZISSEN
 10
128.867513
 20
280.0
 30
0.0
 11
114.433757
 21
305.0
 31
0.0
  0
LINE
  8
L-ZISSEN
 10
114.433757
 20
305.0
 30
0.0
 11
85.566243
 21
305.0
 31
0.0
  0
LINE
  8
L-ZISSEN
 10
71.132487
 20
280.0
 30
0.0
 11
85.566243
 21
305.0
 31
0.0
  0
ARC
  8
L-ZISSEN
 10
100.0
 20
280.0
 30
0.0
 40
45.0
 50
151.189822
 51
208.810177
  0
ARC
  8
L-ZISSEN
 10
100.0
 20
280.0
 30
0.0
 40
45.0
 50
241.189823
 51
298.810178
  0
LINE
  8
L-TYUSIN
 10
250.0
 20
100.0
 30
0.0
 11
310.0
 21
100.0
 31
0.0
  0
LINE
  8
L-ZISSEN
 10
255.0
 20
59.0
 30
0.0
 11
255.0
 21
73.5
 31
0.0
  0
LINE
  8
L-ZISSEN
 10
255.0
 20
59.0
 30
0.0
 11
305.0
 21
59.0
 31
0.0
  0
LINE
  8
L-ZISSEN
 10
305.0
 20
73.5
 30
0.0
 11
305.0
 21
59.0
 31
0.0
  0
LINE
  8
L-ZISSEN
 10
242.0
 20
74.0
 30
0.0
 11
318.0
 21
74.0
 31
0.0
  0
ARC
  8
L-ZISSEN
 10
280.0
 20
124.0
 30
0.0
 40
48.0
 50
240.0
 51
300.0
  0
LINE
  8
L-ZISSEN
 10
304.0
 20
82.430781
 30
0.0
 11
304.0
 21
117.569219
 31
0.0
  0
LINE
  8
L-ZISSEN
 10
318.0
 20
74.0
 30
0.0
 11
318.0
 21
106.0
 31
0.0
  0
LINE
  8
L-ZISSEN
 10
308.000002
 20
106.0
 30
0.0
 11
325.0
 21
106.0
 31
0.0
  0
LINE
  8
L-ZISSEN
 10
242.0
 20
74.0
 30
0.0
 11
242.0
 21
106.0
 31
0.0
  0
LINE
  8
L-ZISSEN
 10
235.0
 20
106.0
 30
0.0
 11
252.000004
 21
106.0
 31
0.0
  0
LINE
  8
L-ZISSEN
 10
256.0
 20
82.430781
 30
0.0
 11
256.0
 21
117.569219
 31
0.0
  0
ARC
  8
L-ZISSEN
 10
280.0
 20
76.0
 30
0.0
 40
48.0
 50
60.0
 51
120.0
  0
LINE
  8
L-TYUSIN
 10
280.0
 20
166.5
 30
0.0
 11
280.0
 21
54.0
 31
0.0
  0
LINE
  8
L-ZISSEN
 10
321.112698
 20
137.0
 30
0.0
 11
321.112698
 21
106.0
 31
0.0
  0
LINE
  8
L-ZISSEN
 10
321.112698
 20
137.0
 30
0.0
 11
301.685919
 21
137.0
 31
0.0
  0
LINE
  8
L-ZISSEN
 10
304.612698
 20
147.0
 30
0.0
 11
304.612698
 21
137.0
 31
0.0
  0
LINE
  8
L-ZISSEN
 10
317.612698
 20
147.0
 30
0.0
 11
317.612698
 21
137.0
 31
0.0
  0
LINE
  8
L-ZISSEN
 10
325.0
 20
106.0
 30
0.0
 11
325.0
 21
146.5
 31
0.0
  0
LINE
  8
L-ZISSEN
 10
325.0
 20
146.5
 30
0.0
 11
317.612698
 21
146.5
 31
0.0
  0
LINE
  8
L-ZISSEN
 10
305.0
 20
147.0
 30
0.0
 11
305.0
 21
161.5
 31
0.0
  0
LINE
  8
L-ZISSEN
 10
280.0
 20
161.5
 30
0.0
 11
280.0
 21
146.5
 31
0.0
  0
LINE
  8
L-ZISSEN
 10
255.0
 20
161.5
 30
0.0
 11
305.0
 21
161.5
 31
0.0
  0
LINE
  8
L-ZISSEN
 10
255.0
 20
161.5
 30
0.0
 11
255.0
 21
147.0
 31
0.0
  0
LINE
  8
L-ZISSEN
 10
255.387302
 20
147.0
 30
0.0
 11
242.387302
 21
147.0
 31
0.0
  0
LINE
  8
L-ZISSEN
 10
255.387302
 20
146.5
 30
0.0
 11
304.612698
 21
146.5
 31
0.0
  0
LINE
  8
L-ZISSEN
 10
242.387302
 20
147.0
 30
0.0
 11
242.387302
 21
137.0
 31
0.0
  0
LINE
  8
L-ZISSEN
 10
255.387302
 20
147.0
 30
0.0
 11
255.387302
 21
137.0
 31
0.0
  0
LINE
  8
L-ZISSEN
 10
235.0
 20
129.0
 30
0.0
 11
325.0
 21
129.0
 31
0.0
  0
LINE
  8
L-ZISSEN
 10
238.887302
 20
137.0
 30
0.0
 11
238.887302
 21
106.0
 31
0.0
  0
LINE
  8
L-ZISSEN
 10
235.0
 20
106.0
 30
0.0
 11
235.0
 21
146.5
 31
0.0
  0
LINE
  8
L-ZISSEN
 10
79.940496
 20
137.0
 30
0.0
 11
58.887302
 21
137.0
 31
0.0
  0
LINE
  8
L-ZISSEN
 10
124.612698
 20
147.0
 30
0.0
 11
124.612698
 21
137.0
 31
0.0
  0
LINE
  8
L-ZISSEN
 10
145.0
 20
124.0
 30
0.0
 11
145.0
 21
146.5
 31
0.0
  0
LINE
  8
L-ZISSEN
 10
145.0
 20
146.5
 30
0.0
 11
137.612698
 21
146.5
 31
0.0
  0
LINE
  8
L-ZISSEN
 10
137.612698
 20
147.0
 30
0.0
 11
137.612698
 21
137.0
 31
0.0
  0
LINE
  8
L-ZISSEN
 10
120.059504
 20
137.0
 30
0.0
 11
141.112698
 21
137.0
 31
0.0
  0
LINE
  8
L-ZISSEN
 10
141.112698
 20
105.780377
 30
0.0
 11
120.059504
 21
105.780377
 31
0.0
  0
LINE
  8
L-ZISSEN
 10
141.112698
 20
137.0
 30
0.0
 11
141.112698
 21
105.780377
 31
0.0
  0
LINE
  8
L-ZISSEN
 10
120.059504
 20
146.5
 30
0.0
 11
120.059504
 21
105.780377
 31
0.0
  0
LINE
  8
L-TYUSIN
 10
100.0
 20
166.5
 30
0.0
 11
100.0
 21
54.0
 31
0.0
  0
LINE
  8
L-TYUSIN
 10
50.0
 20
100.0
 30
0.0
 11
165.0
 21
100.0
 31
0.0
  0
LINE
  8
L-ZISSEN
 10
62.387302
 20
147.0
 30
0.0
 11
62.387302
 21
137.0
 31
0.0
  0
LINE
  8
L-ZISSEN
 10
75.387302
 20
147.0
 30
0.0
 11
75.387302
 21
137.0
 31
0.0
  0
LINE
  8
L-ZISSEN
 10
58.887302
 20
105.780377
 30
0.0
 11
79.940496
 21
105.780377
 31
0.0
  0
LINE
  8
L-ZISSEN
 10
79.940496
 20
146.5
 30
0.0
 11
79.940496
 21
105.780377
 31
0.0
  0
LINE
  8
L-ZISSEN
 10
58.887302
 20
137.0
 30
0.0
 11
58.887302
 21
105.780377
 31
0.0
  0
LINE
  8
L-ZISSEN
 10
55.0
 20
74.0
 30
0.0
 11
55.0
 21
146.5
 31
0.0
  0
LINE
  8
L-ZISSEN
 10
71.132487
 20
74.0
 30
0.0
 11
71.132487
 21
59.0
 31
0.0
  0
LINE
  8
L-ZISSEN
 10
85.566243
 20
74.0
 30
0.0
 11
85.566243
 21
59.0
 31
0.0
  0
LINE
  8
L-ZISSEN
 10
114.433757
 20
74.0
 30
0.0
 11
114.433757
 21
59.0
 31
0.0
  0
LINE
  8
L-ZISSEN
 10
128.867513
 20
74.0
 30
0.0
 11
128.867513
 21
59.0
 31
0.0
  0
LINE
  8
L-ZISSEN
 10
71.132487
 20
59.0
 30
0.0
 11
128.867513
 21
59.0
 31
0.0
  0
LINE
  8
L-ZISSEN
 10
160.0
 20
76.0
 30
0.0
 11
145.0
 21
76.0
 31
0.0
  0
LINE
  8
L-ZISSEN
 10
55.0
 20
74.0
 30
0.0
 11
145.0
 21
74.0
 31
0.0
  0
LINE
  8
L-ZISSEN
 10
160.0
 20
124.0
 30
0.0
 11
145.0
 21
124.0
 31
0.0
  0
LINE
  8
L-ZISSEN
 10
160.0
 20
76.0
 30
0.0
 11
160.0
 21
124.0
 31
0.0
  0
LINE
  8
L-ZISSEN
 10
128.867513
 20
161.5
 30
0.0
 11
128.867513
 21
147.0
 31
0.0
  0
LINE
  8
L-ZISSEN
 10
114.433757
 20
161.5
 30
0.0
 11
114.433757
 21
146.5
 31
0.0
  0
LINE
  8
L-ZISSEN
 10
85.566243
 20
161.5
 30
0.0
 11
85.566243
 21
146.5
 31
0.0
  0
LINE
  8
L-ZISSEN
 10
71.132487
 20
161.5
 30
0.0
 11
71.132487
 21
147.0
 31
0.0
  0
LINE
  8
L-ZISSEN
 10
71.132487
 20
161.5
 30
0.0
 11
128.867513
 21
161.5
 31
0.0
  0
LINE
  8
L-ZISSEN
 10
75.387302
 20
146.5
 30
0.0
 11
124.612698
 21
146.5
 31
0.0
  0
LINE
  8
L-ZISSEN
 10
55.0
 20
129.0
 30
0.0
 11
145.0
 21
129.0
 31
0.0
  0
ENDSEC
  0
EOF
