  0
SECTION
  2
HEADER
  9
$ACADVER
  1
AC1006
  9
$INSBASE
 10
0.0
 20
0.0
 30
0.0
  9
$EXTMIN
 10
75.0
 20
25.0
  9
$EXTMAX
 10
745.0
 20
828.5
  9
$LIMMIN
 10
0.0
 20
0.0
  9
$LIMMAX
 10
1189.0
 20
841.0
  9
$ORTHOMODE
 70
     0
  9
$REGENMODE
 70
     1
  9
$FILLMODE
 70
     1
  9
$QTEXTMODE
 70
     0
  9
$MIRRTEXT
 70
     1
  9
$DRAGMODE
 70
     2
  9
$LTSCALE
 40
1.0
  9
$OSMODE
 70
     0
  9
$ATTMODE
 70
     1
  9
$TEXTSIZE
 40
4.5
  9
$TRACEWID
 40
0.05
  9
$TEXTSTYLE
  7
STANDARD
  9
$CLAYER
  8
L-ZISSEN
  9
$CELTYPE
  6
BYLAYER
  9
$CECOLOR
 62
   256
  9
$DIMSCALE
 40
1.0
  9
$DIMASZ
 40
2.0
  9
$DIMEXO
 40
1.0
  9
$DIMDLI
 40
0.38
  9
$DIMRND
 40
0.0
  9
$DIMDLE
 40
1.0
  9
$DIMEXE
 40
1.0
  9
$DIMTP
 40
0.0
  9
$DIMTM
 40
0.0
  9
$DIMTXT
 40
4.5
  9
$DIMCEN
 40
0.09
  9
$DIMTSZ
 40
0.0
  9
$DIMTOL
 70
     0
  9
$DIMLIM
 70
     0
  9
$DIMTIH
 70
     0
  9
$DIMTOH
 70
     0
  9
$DIMSE1
 70
     0
  9
$DIMSE2
 70
     0
  9
$DIMTAD
 70
     1
  9
$DIMZIN
 70
     0
  9
$DIMBLK
  1

  9
$DIMASO
 70
     0
  9
$DIMSHO
 70
     0
  9
$DIMPOST
  1

  9
$DIMAPOST
  1

  9
$DIMALT
 70
     0
  9
$DIMALTD
 70
     2
  9
$DIMALTF
 40
25.4
  9
$DIMLFAC
 40
1.0
  9
$DIMTOFL
 70
     1
  9
$DIMTVP
 40
0.0
  9
$DIMTIX
 70
     1
  9
$DIMSOXD
 70
     0
  9
$DIMSAH
 70
     0
  9
$DIMBLK1
  1

  9
$DIMBLK2
  1

  9
$LUNITS
 70
     2
  9
$LUPREC
 70
     4
  9
$AXISMODE
 70
     0
  9
$AXISUNIT
 10
0.0
 20
0.0
  9
$SKETCHINC
 40
0.1
  9
$FILLETRAD
 40
0.0
  9
$AUNITS
 70
     0
  9
$AUPREC
 70
     0
  9
$MENU
  1
acad
  9
$ELEVATION
 40
0.0
  9
$THICKNESS
 40
0.0
  9
$LIMCHECK
 70
     0
  9
$BLIPMODE
 70
     1
  9
$CHAMFERA
 40
5.0
  9
$CHAMFERB
 40
5.0
  9
$SKPOLY
 70
     0
  9
$TDCREATE
 40
2449573.5963782407
  9
$TDUPDATE
 40
2449573.5963782407
  9
$TDINDWG
 40
0.0000000000
  9
$TDUSRTIMER
 40
0.0000000000
  9
$USRTIMER
 70
     1
  9
$ANGBASE
 50
0.0
  9
$ANGDIR
 70
     0
  9
$PDMODE
 70
     0
  9
$PDSIZE
 40
0.0
  9
$PLINEWID
 40
0.0
  9
$COORDS
 70
     2
  9
$SPLFRAME
 70
     0
  9
$SPLINETYPE
 70
     6
  9
$SPLINESEGS
 70
     8
  9
$ATTDIA
 70
     0
  9
$ATTREQ
 70
     1
  9
$HANDLING
 70
     0
  9
$HANDSEED
  5
0
  9
$SURFTAB1
 70
     6
  9
$SURFTAB2
 70
     6
  9
$SURFTYPE
 70
     6
  9
$SURFU
 70
     6
  9
$SURFV
 70
     6
  9
$FLATLAND
 70
     0
  9
$UCSNAME
  2

  9
$UCSORG
 10
0.0
 20
0.0
 30
0.0
  9
$UCSXDIR
 10
1.0
 20
0.0
 30
0.0
  9
$UCSYDIR
 10
0.0
 20
1.0
 30
0.0
  9
$USERI1
 70
     0
  9
$USERI2
 70
     0
  9
$USERI3
 70
     0
  9
$USERI4
 70
     0
  9
$USERI5
 70
     0
  9
$USERR1
 40
0.0
  9
$USERR2
 40
0.0
  9
$USERR3
 40
0.0
  9
$USERR4
 40
0.0
  9
$USERR5
 40
0.0
  9
$WORLDVIEW
 70
     1
  0
ENDSEC
  0
SECTION
  2
TABLES
  0
TABLE
  2
VPORT
 70
     2
  0
VPORT
  2
*ACTIVE
 70
     0
 10
0.0
 20
0.0
 11
1.0
 21
1.0
 12
674.578245
 22
435.577173
 13
0.0
 23
0.0
 14
5.0
 24
5.0
 15
0.0
 25
0.0
 16
0.0
 26
0.0
 36
1.0
 17
0.0
 27
0.0
 37
0.0
 40
871.154346
 41
1.5487
 42
50.0
 43
0.0
 44
0.0
 50
0.0
 51
0.0
 71
     0
 72
   100
 73
     1
 74
     0
 75
     0
 76
     0
 77
     0
 78
     0
  0
ENDTAB
  0
TABLE
  2
LTYPE
 70
     2
  0
LTYPE
  2
CONTINUOUS
 70
    64
  3
Solid line
 72
    65
 73
     0
 40
0.0
  0
LTYPE
  2
CENTER
 70
    64
  3
____ _ ____ _ ____ _ ____ _ 
 72
    65
 73
     4
 40
60.0
 49
45.0
 49
-5.0
 49
5.0
 49
-5.0
  0
ENDTAB
  0
TABLE
  2
LAYER
 70
     3
  0
LAYER
  2
0
 70
     0
 62
     7
  6
CONTINUOUS
  0
LAYER
  2
L-ZISSEN
 70
    64
 62
     7
  6
CONTINUOUS
  0
LAYER
  2
L-TYUSIN
 70
    64
 62
     1
  6
CENTER
  0
ENDTAB
  0
TABLE
  2
STYLE
 70
     1
  0
STYLE
  2
STANDARD
 70
    64
 40
0.0
 41
1.0
 50
0.0
 71
     0
 42
4.5
  3
TXT
  4

  0
ENDTAB
  0
TABLE
  2
VIEW
 70
     0
  0
ENDTAB
  0
TABLE
  2
UCS
 70
     0
  0
ENDTAB
  0
TABLE
  2
DWGMGR
 70
     0
  0
ENDTAB
  0
ENDSEC
  0
SECTION
  2
BLOCKS
  0
ENDSEC
  0
SECTION
  2
ENTITIES
  0
LINE
  8
L-TYUSIN
 10
311.0
 20
260.0
 30
0.0
 11
389.0
 21
260.0
 31
0.0
  0
LINE
  8
L-TYUSIN
 10
430.0
 20
241.0
 30
0.0
 11
430.0
 21
319.0
 31
0.0
  0
LINE
  8
L-TYUSIN
 10
350.0
 20
221.0
 30
0.0
 11
350.0
 21
412.0
 31
0.0
  0
LINE
  8
L-TYUSIN
 10
350.0
 20
175.0
 30
0.0
 11
350.0
 21
25.0
 31
0.0
  0
LINE
  8
L-TYUSIN
 10
183.0
 20
100.0
 30
0.0
 11
517.0
 21
100.0
 31
0.0
  0
LINE
  8
L-ZISSEN
 10
248.0
 20
147.0
 30
0.0
 11
248.0
 21
53.0
 31
0.0
  0
LINE
  8
L-ZISSEN
 10
452.0
 20
147.0
 30
0.0
 11
452.0
 21
53.0
 31
0.0
  0
LINE
  8
L-ZISSEN
 10
248.0
 20
53.0
 30
0.0
 11
452.0
 21
53.0
 31
0.0
  0
LINE
  8
L-ZISSEN
 10
248.0
 20
147.0
 30
0.0
 11
452.0
 21
147.0
 31
0.0
  0
LINE
  8
L-ZISSEN
 10
236.0
 20
170.0
 30
0.0
 11
464.0
 21
170.0
 31
0.0
  0
CIRCLE
  8
L-ZISSEN
 10
350.0
 20
260.0
 30
0.0
 40
34.0
  0
CIRCLE
  8
L-ZISSEN
 10
430.0
 20
280.0
 30
0.0
 40
34.0
  0
LINE
  8
L-ZISSEN
 10
396.0
 20
155.0
 30
0.0
 11
396.0
 21
170.0
 31
0.0
  0
LINE
  8
L-ZISSEN
 10
464.0
 20
158.294693
 30
0.0
 11
464.0
 21
170.0
 31
0.0
  0
LINE
  8
L-ZISSEN
 10
384.0
 20
155.0
 30
0.0
 11
384.0
 21
170.0
 31
0.0
  0
LINE
  8
L-ZISSEN
 10
316.0
 20
155.0
 30
0.0
 11
316.0
 21
170.0
 31
0.0
  0
LINE
  8
L-ZISSEN
 10
240.0
 20
155.0
 30
0.0
 11
460.0
 21
155.0
 31
0.0
  0
LINE
  8
L-ZISSEN
 10
240.0
 20
45.0
 30
0.0
 11
460.0
 21
45.0
 31
0.0
  0
LINE
  8
L-ZISSEN
 10
460.0
 20
155.0
 30
0.0
 11
460.0
 21
154.529796
 31
0.0
  0
LINE
  8
L-ZISSEN
 10
240.0
 20
155.0
 30
0.0
 11
240.0
 21
154.529796
 31
0.0
  0
LINE
  8
L-ZISSEN
 10
236.0
 20
158.294693
 30
0.0
 11
236.0
 21
170.0
 31
0.0
  0
LINE
  8
L-ZISSEN
 10
304.0
 20
155.0
 30
0.0
 11
304.0
 21
170.0
 31
0.0
  0
LINE
  8
L-ZISSEN
 10
424.0
 20
45.0
 30
0.0
 11
424.0
 21
30.0
 31
0.0
  0
LINE
  8
L-ZISSEN
 10
276.0
 20
30.0
 30
0.0
 11
424.0
 21
30.0
 31
0.0
  0
LINE
  8
L-ZISSEN
 10
356.0
 20
45.0
 30
0.0
 11
356.0
 21
30.0
 31
0.0
  0
LINE
  8
L-TYUSIN
 10
390.0
 20
50.0
 30
0.0
 11
390.0
 21
25.0
 31
0.0
  0
LINE
  8
L-ZISSEN
 10
344.0
 20
45.0
 30
0.0
 11
344.0
 21
30.0
 31
0.0
  0
LINE
  8
L-ZISSEN
 10
276.0
 20
45.0
 30
0.0
 11
276.0
 21
30.0
 31
0.0
  0
LINE
  8
L-TYUSIN
 10
310.0
 20
50.0
 30
0.0
 11
310.0
 21
25.0
 31
0.0
  0
LINE
  8
L-TYUSIN
 10
430.0
 20
175.0
 30
0.0
 11
430.0
 21
150.0
 31
0.0
  0
LINE
  8
L-TYUSIN
 10
270.0
 20
175.0
 30
0.0
 11
270.0
 21
150.0
 31
0.0
  0
LINE
  8
L-TYUSIN
 10
468.0
 20
45.0
 30
0.0
 11
488.0
 21
45.0
 31
0.0
  0
LINE
  8
L-TYUSIN
 10
478.0
 20
55.0
 30
0.0
 11
478.0
 21
35.0
 31
0.0
  0
CIRCLE
  8
L-ZISSEN
 10
478.0
 20
45.0
 30
0.0
 40
5.5
  0
ARC
  8
L-ZISSEN
 10
478.0
 20
45.0
 30
0.0
 40
12.0
 50
225.0
 51
45.0
  0
LINE
  8
L-ZISSEN
 10
470.0
 20
124.0
 30
0.0
 11
470.0
 21
76.0
 31
0.0
  0
LINE
  8
L-ZISSEN
 10
486.485281
 20
53.485281
 30
0.0
 11
470.0
 21
76.0
 31
0.0
  0
LINE
  8
L-ZISSEN
 10
469.514719
 20
36.514719
 30
0.0
 11
452.0
 21
53.0
 31
0.0
  0
CIRCLE
  8
L-ZISSEN
 10
478.0
 20
155.0
 30
0.0
 40
5.5
  0
LINE
  8
L-TYUSIN
 10
468.0
 20
155.0
 30
0.0
 11
488.0
 21
155.0
 31
0.0
  0
LINE
  8
L-TYUSIN
 10
478.0
 20
145.0
 30
0.0
 11
478.0
 21
165.0
 31
0.0
  0
LINE
  8
L-ZISSEN
 10
486.485281
 20
146.514719
 30
0.0
 11
470.0
 21
124.0
 31
0.0
  0
ARC
  8
L-ZISSEN
 10
478.0
 20
155.0
 30
0.0
 40
12.0
 50
315.0
 51
135.0
  0
LINE
  8
L-ZISSEN
 10
469.514719
 20
163.485281
 30
0.0
 11
452.0
 21
147.0
 31
0.0
  0
ARC
  8
L-ZISSEN
 10
222.0
 20
155.0
 30
0.0
 40
12.0
 50
45.0
 51
225.0
  0
CIRCLE
  8
L-ZISSEN
 10
222.0
 20
155.0
 30
0.0
 40
5.5
  0
LINE
  8
L-TYUSIN
 10
232.0
 20
155.0
 30
0.0
 11
212.0
 21
155.0
 31
0.0
  0
LINE
  8
L-TYUSIN
 10
222.0
 20
145.0
 30
0.0
 11
222.0
 21
165.0
 31
0.0
  0
LINE
  8
L-ZISSEN
 10
230.485281
 20
163.485281
 30
0.0
 11
248.0
 21
147.0
 31
0.0
  0
LINE
  8
L-ZISSEN
 10
213.514719
 20
146.514719
 30
0.0
 11
230.0
 21
124.0
 31
0.0
  0
LINE
  8
L-ZISSEN
 10
230.0
 20
124.0
 30
0.0
 11
230.0
 21
76.0
 31
0.0
  0
LINE
  8
L-ZISSEN
 10
213.514719
 20
53.485281
 30
0.0
 11
230.0
 21
76.0
 31
0.0
  0
CIRCLE
  8
L-ZISSEN
 10
222.0
 20
45.0
 30
0.0
 40
5.5
  0
LINE
  8
L-TYUSIN
 10
222.0
 20
55.0
 30
0.0
 11
222.0
 21
35.0
 31
0.0
  0
LINE
  8
L-TYUSIN
 10
232.0
 20
45.0
 30
0.0
 11
212.0
 21
45.0
 31
0.0
  0
ARC
  8
L-ZISSEN
 10
222.0
 20
45.0
 30
0.0
 40
12.0
 50
135.0
 51
315.0
  0
LINE
  8
L-ZISSEN
 10
230.485281
 20
36.514719
 30
0.0
 11
248.0
 21
53.0
 31
0.0
  0
LINE
  8
L-ZISSEN
 10
230.485281
 20
583.485281
 30
0.0
 11
240.0
 21
574.529796
 31
0.0
  0
ARC
  8
L-ZISSEN
 10
222.0
 20
575.0
 30
0.0
 40
12.0
 50
45.0
 51
225.0
  0
LINE
  8
L-TYUSIN
 10
232.0
 20
575.0
 30
0.0
 11
212.0
 21
575.0
 31
0.0
  0
LINE
  8
L-TYUSIN
 10
222.0
 20
565.0
 30
0.0
 11
222.0
 21
585.0
 31
0.0
  0
CIRCLE
  8
L-ZISSEN
 10
222.0
 20
575.0
 30
0.0
 40
5.5
  0
LINE
  8
L-ZISSEN
 10
213.514719
 20
566.514719
 30
0.0
 11
219.749197
 21
558.0
 31
0.0
  0
LINE
  8
L-ZISSEN
 10
213.514719
 20
473.485281
 30
0.0
 11
219.749197
 21
482.0
 31
0.0
  0
LINE
  8
L-ZISSEN
 10
230.485281
 20
456.514719
 30
0.0
 11
236.0
 21
461.705307
 31
0.0
  0
LINE
  8
L-TYUSIN
 10
222.0
 20
475.0
 30
0.0
 11
222.0
 21
455.0
 31
0.0
  0
LINE
  8
L-TYUSIN
 10
232.0
 20
465.0
 30
0.0
 11
212.0
 21
465.0
 31
0.0
  0
CIRCLE
  8
L-ZISSEN
 10
222.0
 20
465.0
 30
0.0
 40
5.5
  0
ARC
  8
L-ZISSEN
 10
222.0
 20
465.0
 30
0.0
 40
12.0
 50
135.0
 51
315.0
  0
LINE
  8
L-ZISSEN
 10
469.514719
 20
456.514719
 30
0.0
 11
464.0
 21
461.705307
 31
0.0
  0
ARC
  8
L-ZISSEN
 10
478.0
 20
465.0
 30
0.0
 40
12.0
 50
225.0
 51
45.0
  0
LINE
  8
L-ZISSEN
 10
486.485281
 20
473.485281
 30
0.0
 11
480.250803
 21
482.0
 31
0.0
  0
LINE
  8
L-TYUSIN
 10
478.0
 20
475.0
 30
0.0
 11
478.0
 21
455.0
 31
0.0
  0
LINE
  8
L-TYUSIN
 10
468.0
 20
465.0
 30
0.0
 11
488.0
 21
465.0
 31
0.0
  0
CIRCLE
  8
L-ZISSEN
 10
478.0
 20
465.0
 30
0.0
 40
5.5
  0
LINE
  8
L-ZISSEN
 10
469.514719
 20
583.485281
 30
0.0
 11
460.0
 21
574.529796
 31
0.0
  0
LINE
  8
L-ZISSEN
 10
486.485281
 20
566.514719
 30
0.0
 11
480.250803
 21
558.0
 31
0.0
  0
ARC
  8
L-ZISSEN
 10
478.0
 20
575.0
 30
0.0
 40
12.0
 50
315.0
 51
135.0
  0
CIRCLE
  8
L-ZISSEN
 10
478.0
 20
575.0
 30
0.0
 40
5.5
  0
LINE
  8
L-TYUSIN
 10
478.0
 20
565.0
 30
0.0
 11
478.0
 21
585.0
 31
0.0
  0
LINE
  8
L-TYUSIN
 10
468.0
 20
575.0
 30
0.0
 11
488.0
 21
575.0
 31
0.0
  0
LINE
  8
L-TYUSIN
 10
270.0
 20
445.0
 30
0.0
 11
270.0
 21
470.0
 31
0.0
  0
LINE
  8
L-TYUSIN
 10
430.0
 20
445.0
 30
0.0
 11
430.0
 21
470.0
 31
0.0
  0
LINE
  8
L-TYUSIN
 10
310.0
 20
570.0
 30
0.0
 11
310.0
 21
595.0
 31
0.0
  0
LINE
  8
L-ZISSEN
 10
276.0
 20
575.0
 30
0.0
 11
276.0
 21
590.0
 31
0.0
  0
LINE
  8
L-ZISSEN
 10
344.0
 20
575.0
 30
0.0
 11
344.0
 21
590.0
 31
0.0
  0
LINE
  8
L-TYUSIN
 10
390.0
 20
570.0
 30
0.0
 11
390.0
 21
595.0
 31
0.0
  0
LINE
  8
L-ZISSEN
 10
356.0
 20
575.0
 30
0.0
 11
356.0
 21
590.0
 31
0.0
  0
LINE
  8
L-ZISSEN
 10
276.0
 20
590.0
 30
0.0
 11
424.0
 21
590.0
 31
0.0
  0
LINE
  8
L-ZISSEN
 10
424.0
 20
575.0
 30
0.0
 11
424.0
 21
590.0
 31
0.0
  0
LINE
  8
L-ZISSEN
 10
304.0
 20
465.0
 30
0.0
 11
304.0
 21
450.0
 31
0.0
  0
LINE
  8
L-ZISSEN
 10
236.0
 20
482.0
 30
0.0
 11
236.0
 21
450.0
 31
0.0
  0
LINE
  8
L-ZISSEN
 10
240.0
 20
465.0
 30
0.0
 11
240.0
 21
482.0
 31
0.0
  0
LINE
  8
L-ZISSEN
 10
460.0
 20
465.0
 30
0.0
 11
460.0
 21
482.0
 31
0.0
  0
LINE
  8
L-ZISSEN
 10
240.0
 20
575.0
 30
0.0
 11
460.0
 21
575.0
 31
0.0
  0
LINE
  8
L-ZISSEN
 10
240.0
 20
465.0
 30
0.0
 11
460.0
 21
465.0
 31
0.0
  0
LINE
  8
L-ZISSEN
 10
316.0
 20
465.0
 30
0.0
 11
316.0
 21
450.0
 31
0.0
  0
LINE
  8
L-ZISSEN
 10
384.0
 20
465.0
 30
0.0
 11
384.0
 21
450.0
 31
0.0
  0
LINE
  8
L-ZISSEN
 10
464.0
 20
482.0
 30
0.0
 11
464.0
 21
450.0
 31
0.0
  0
LINE
  8
L-ZISSEN
 10
396.0
 20
465.0
 30
0.0
 11
396.0
 21
450.0
 31
0.0
  0
LINE
  8
L-ZISSEN
 10
236.0
 20
450.0
 30
0.0
 11
464.0
 21
450.0
 31
0.0
  0
LINE
  8
L-TYUSIN
 10
183.0
 20
520.0
 30
0.0
 11
517.0
 21
520.0
 31
0.0
  0
LINE
  8
L-TYUSIN
 10
350.0
 20
445.0
 30
0.0
 11
350.0
 21
595.0
 31
0.0
  0
LINE
  8
L-ZISSEN
 10
240.0
 20
45.470204
 30
0.0
 11
240.0
 21
45.0
 31
0.0
  0
LINE
  8
L-ZISSEN
 10
460.0
 20
45.470204
 30
0.0
 11
460.0
 21
45.0
 31
0.0
  0
LINE
  8
L-ZISSEN
 10
450.0
 20
315.0
 30
0.0
 11
250.0
 21
315.0
 31
0.0
  0
LINE
  8
L-ZISSEN
 10
240.0
 20
305.0
 30
0.0
 11
240.0
 21
296.0
 31
0.0
  0
LINE
  8
L-ZISSEN
 10
210.0
 20
220.0
 30
0.0
 11
248.0
 21
220.0
 31
0.0
  0
LINE
  8
L-ZISSEN
 10
460.0
 20
226.0
 30
0.0
 11
460.0
 21
264.0
 31
0.0
  0
LINE
  8
L-ZISSEN
 10
210.0
 20
240.0
 30
0.0
 11
240.0
 21
240.0
 31
0.0
  0
LINE
  8
L-ZISSEN
 10
490.0
 20
220.0
 30
0.0
 11
490.0
 21
240.0
 31
0.0
  0
LINE
  8
L-ZISSEN
 10
210.0
 20
220.0
 30
0.0
 11
210.0
 21
240.0
 31
0.0
  0
LINE
  8
L-ZISSEN
 10
452.0
 20
220.0
 30
0.0
 11
490.0
 21
220.0
 31
0.0
  0
LINE
  8
L-ZISSEN
 10
240.0
 20
226.0
 30
0.0
 11
460.0
 21
226.0
 31
0.0
  0
LINE
  8
L-ZISSEN
 10
452.0
 20
220.0
 30
0.0
 11
452.0
 21
226.0
 31
0.0
  0
LINE
  8
L-ZISSEN
 10
248.0
 20
220.0
 30
0.0
 11
248.0
 21
226.0
 31
0.0
  0
LINE
  8
L-ZISSEN
 10
460.0
 20
240.0
 30
0.0
 11
490.0
 21
240.0
 31
0.0
  0
LINE
  8
L-ZISSEN
 10
460.0
 20
296.0
 30
0.0
 11
460.0
 21
305.0
 31
0.0
  0
LINE
  8
L-ZISSEN
 10
240.0
 20
264.0
 30
0.0
 11
240.0
 21
226.0
 31
0.0
  0
LINE
  8
L-ZISSEN
 10
450.0
 20
315.0
 30
0.0
 11
460.0
 21
305.0
 31
0.0
  0
LINE
  8
L-ZISSEN
 10
250.0
 20
315.0
 30
0.0
 11
240.0
 21
305.0
 31
0.0
  0
LINE
  8
L-TYUSIN
 10
391.0
 20
280.0
 30
0.0
 11
469.0
 21
280.0
 31
0.0
  0
LINE
  8
L-ZISSEN
 10
297.495454
 20
260.0
 30
0.0
 11
316.0
 21
260.0
 31
0.0
  0
LINE
  8
L-ZISSEN
 10
322.504546
 20
280.0
 30
0.0
 11
304.0
 21
280.0
 31
0.0
  0
CIRCLE
  8
L-ZISSEN
 10
270.0
 20
280.0
 30
0.0
 40
34.0
  0
LINE
  8
L-TYUSIN
 10
270.0
 20
241.0
 30
0.0
 11
270.0
 21
319.0
 31
0.0
  0
LINE
  8
L-ZISSEN
 10
250.0
 20
725.0
 30
0.0
 11
240.0
 21
735.0
 31
0.0
  0
LINE
  8
L-ZISSEN
 10
450.0
 20
725.0
 30
0.0
 11
460.0
 21
735.0
 31
0.0
  0
LINE
  8
L-ZISSEN
 10
342.496154
 20
770.0
 30
0.0
 11
357.503846
 21
770.0
 31
0.0
  0
LINE
  8
L-ZISSEN
 10
357.503846
 20
790.0
 30
0.0
 11
342.496154
 21
790.0
 31
0.0
  0
LINE
  8
L-ZISSEN
 10
240.0
 20
735.0
 30
0.0
 11
240.0
 21
814.0
 31
0.0
  0
LINE
  8
L-ZISSEN
 10
460.0
 20
800.0
 30
0.0
 11
490.0
 21
800.0
 31
0.0
  0
LINE
  8
L-ZISSEN
 10
248.0
 20
820.0
 30
0.0
 11
248.0
 21
814.0
 31
0.0
  0
LINE
  8
L-ZISSEN
 10
452.0
 20
820.0
 30
0.0
 11
452.0
 21
814.0
 31
0.0
  0
LINE
  8
L-ZISSEN
 10
240.0
 20
814.0
 30
0.0
 11
460.0
 21
814.0
 31
0.0
  0
LINE
  8
L-ZISSEN
 10
452.0
 20
820.0
 30
0.0
 11
490.0
 21
820.0
 31
0.0
  0
LINE
  8
L-ZISSEN
 10
210.0
 20
820.0
 30
0.0
 11
210.0
 21
800.0
 31
0.0
  0
LINE
  8
L-ZISSEN
 10
490.0
 20
820.0
 30
0.0
 11
490.0
 21
800.0
 31
0.0
  0
LINE
  8
L-ZISSEN
 10
210.0
 20
800.0
 30
0.0
 11
240.0
 21
800.0
 31
0.0
  0
LINE
  8
L-ZISSEN
 10
460.0
 20
814.0
 30
0.0
 11
460.0
 21
735.0
 31
0.0
  0
LINE
  8
L-ZISSEN
 10
210.0
 20
820.0
 30
0.0
 11
248.0
 21
820.0
 31
0.0
  0
LINE
  8
L-ZISSEN
 10
450.0
 20
725.0
 30
0.0
 11
250.0
 21
725.0
 31
0.0
  0
CIRCLE
  8
L-ZISSEN
 10
390.0
 20
780.0
 30
0.0
 40
34.0
  0
LINE
  8
L-TYUSIN
 10
350.0
 20
819.0
 30
0.0
 11
350.0
 21
628.0
 31
0.0
  0
LINE
  8
L-TYUSIN
 10
271.0
 20
780.0
 30
0.0
 11
429.0
 21
780.0
 31
0.0
  0
LINE
  8
L-TYUSIN
 10
309.0
 20
280.0
 30
0.0
 11
231.0
 21
280.0
 31
0.0
  0
LINE
  8
L-ZISSEN
 10
377.495454
 20
280.0
 30
0.0
 11
396.0
 21
280.0
 31
0.0
  0
LINE
  8
L-ZISSEN
 10
402.504546
 20
260.0
 30
0.0
 11
384.0
 21
260.0
 31
0.0
  0
LINE
  8
L-TYUSIN
 10
390.0
 20
819.0
 30
0.0
 11
390.0
 21
741.0
 31
0.0
  0
CIRCLE
  8
L-ZISSEN
 10
310.0
 20
780.0
 30
0.0
 40
34.0
  0
LINE
  8
L-TYUSIN
 10
310.0
 20
819.0
 30
0.0
 11
310.0
 21
741.0
 31
0.0
  0
LINE
  8
L-TYUSIN
 10
595.0
 20
260.0
 30
0.0
 11
745.0
 21
260.0
 31
0.0
  0
LINE
  8
L-TYUSIN
 10
670.0
 20
215.0
 30
0.0
 11
670.0
 21
412.0
 31
0.0
  0
LINE
  8
L-TYUSIN
 10
643.0
 20
280.0
 30
0.0
 11
595.0
 21
280.0
 31
0.0
  0
LINE
  8
L-ZISSEN
 10
615.0
 20
314.0
 30
0.0
 11
600.0
 21
314.0
 31
0.0
  0
LINE
  8
L-ZISSEN
 10
615.0
 20
246.0
 30
0.0
 11
600.0
 21
246.0
 31
0.0
  0
LINE
  8
L-ZISSEN
 10
600.0
 20
314.0
 30
0.0
 11
600.0
 21
226.0
 31
0.0
  0
LINE
  8
L-ZISSEN
 10
638.0
 20
296.0
 30
0.0
 11
638.0
 21
264.0
 31
0.0
  0
LINE
  8
L-ZISSEN
 10
603.0
 20
226.0
 30
0.0
 11
600.0
 21
226.0
 31
0.0
  0
LINE
  8
L-ZISSEN
 10
740.0
 20
294.0
 30
0.0
 11
740.0
 21
226.0
 31
0.0
  0
LINE
  8
L-ZISSEN
 10
737.0
 20
226.0
 30
0.0
 11
740.0
 21
226.0
 31
0.0
  0
LINE
  8
L-ZISSEN
 10
725.0
 20
294.0
 30
0.0
 11
740.0
 21
294.0
 31
0.0
  0
LINE
  8
L-ZISSEN
 10
603.0
 20
220.0
 30
0.0
 11
737.0
 21
220.0
 31
0.0
  0
LINE
  8
L-ZISSEN
 10
603.0
 20
240.0
 30
0.0
 11
603.0
 21
220.0
 31
0.0
  0
LINE
  8
L-ZISSEN
 10
646.0
 20
240.0
 30
0.0
 11
646.0
 21
220.0
 31
0.0
  0
LINE
  8
L-ZISSEN
 10
603.0
 20
240.0
 30
0.0
 11
646.0
 21
240.0
 31
0.0
  0
LINE
  8
L-TYUSIN
 10
615.0
 20
245.0
 30
0.0
 11
615.0
 21
215.0
 31
0.0
  0
LINE
  8
L-ZISSEN
 10
737.0
 20
240.0
 30
0.0
 11
694.0
 21
240.0
 31
0.0
  0
LINE
  8
L-TYUSIN
 10
725.0
 20
245.0
 30
0.0
 11
725.0
 21
215.0
 31
0.0
  0
LINE
  8
L-ZISSEN
 10
737.0
 20
240.0
 30
0.0
 11
737.0
 21
220.0
 31
0.0
  0
LINE
  8
L-ZISSEN
 10
694.0
 20
240.0
 30
0.0
 11
694.0
 21
220.0
 31
0.0
  0
LINE
  8
L-ZISSEN
 10
615.0
 20
315.0
 30
0.0
 11
725.0
 21
315.0
 31
0.0
  0
LINE
  8
L-ZISSEN
 10
615.0
 20
296.0
 30
0.0
 11
638.0
 21
296.0
 31
0.0
  0
LINE
  8
L-ZISSEN
 10
615.0
 20
264.0
 30
0.0
 11
638.0
 21
264.0
 31
0.0
  0
LINE
  8
L-ZISSEN
 10
432.0
 20
316.0
 30
0.0
 11
268.0
 21
316.0
 31
0.0
  0
LINE
  8
L-ZISSEN
 10
615.0
 20
316.0
 30
0.0
 11
725.0
 21
316.0
 31
0.0
  0
LINE
  8
L-ZISSEN
 10
432.0
 20
407.0
 30
0.0
 11
268.0
 21
407.0
 31
0.0
  0
LINE
  8
L-ZISSEN
 10
268.0
 20
407.0
 30
0.0
 11
268.0
 21
315.0
 31
0.0
  0
LINE
  8
L-ZISSEN
 10
432.0
 20
407.0
 30
0.0
 11
432.0
 21
315.0
 31
0.0
  0
LINE
  8
L-TYUSIN
 10
183.0
 20
358.0
 30
0.0
 11
517.0
 21
358.0
 31
0.0
  0
ARC
  8
L-ZISSEN
 10
410.0
 20
564.0
 30
0.0
 40
10.0
 50
203.578178
 51
336.421822
  0
ARC
  8
L-ZISSEN
 10
380.0
 20
476.0
 30
0.0
 40
10.0
 50
23.578178
 51
156.421822
  0
LINE
  8
L-ZISSEN
 10
268.0
 20
480.0
 30
0.0
 11
310.834849
 21
480.0
 31
0.0
  0
LINE
  8
L-ZISSEN
 10
268.0
 20
560.0
 30
0.0
 11
280.834849
 21
560.0
 31
0.0
  0
LINE
  8
L-ZISSEN
 10
389.165151
 20
480.0
 30
0.0
 11
432.0
 21
480.0
 31
0.0
  0
LINE
  8
L-ZISSEN
 10
419.165151
 20
560.0
 30
0.0
 11
432.0
 21
560.0
 31
0.0
  0
ARC
  8
L-ZISSEN
 10
410.0
 20
564.0
 30
0.0
 40
11.0
 50
338.676314
 51
201.323686
  0
ARC
  8
L-ZISSEN
 10
380.0
 20
476.0
 30
0.0
 40
11.0
 50
158.676314
 51
21.323686
  0
CIRCLE
  8
L-ZISSEN
 10
380.0
 20
476.0
 30
0.0
 40
8.0
  0
CIRCLE
  8
L-ZISSEN
 10
410.0
 20
564.0
 30
0.0
 40
8.0
  0
CIRCLE
  8
L-ZISSEN
 10
290.0
 20
564.0
 30
0.0
 40
8.0
  0
ARC
  8
L-ZISSEN
 10
290.0
 20
564.0
 30
0.0
 40
11.0
 50
338.676314
 51
201.323686
  0
ARC
  8
L-ZISSEN
 10
290.0
 20
564.0
 30
0.0
 40
10.0
 50
203.578178
 51
336.421822
  0
ARC
  8
L-ZISSEN
 10
320.0
 20
476.0
 30
0.0
 40
10.0
 50
23.578178
 51
156.421822
  0
CIRCLE
  8
L-ZISSEN
 10
320.0
 20
476.0
 30
0.0
 40
8.0
  0
ARC
  8
L-ZISSEN
 10
320.0
 20
476.0
 30
0.0
 40
11.0
 50
158.676314
 51
21.323686
  0
LINE
  8
L-ZISSEN
 10
299.165151
 20
560.0
 30
0.0
 11
400.834849
 21
560.0
 31
0.0
  0
LINE
  8
L-ZISSEN
 10
329.165151
 20
480.0
 30
0.0
 11
370.834849
 21
480.0
 31
0.0
  0
LINE
  8
L-ZISSEN
 10
419.5
 20
470.0
 30
0.0
 11
419.5
 21
480.0
 31
0.0
  0
LINE
  8
L-ZISSEN
 10
449.0
 20
470.0
 30
0.0
 11
419.5
 21
470.0
 31
0.0
  0
LINE
  8
L-ZISSEN
 10
449.0
 20
570.0
 30
0.0
 11
419.5
 21
570.0
 31
0.0
  0
LINE
  8
L-ZISSEN
 10
419.5
 20
569.545268
 30
0.0
 11
419.5
 21
570.0
 31
0.0
  0
LINE
  8
L-ZISSEN
 10
251.0
 20
570.0
 30
0.0
 11
280.5
 21
570.0
 31
0.0
  0
LINE
  8
L-ZISSEN
 10
280.5
 20
470.0
 30
0.0
 11
280.5
 21
480.0
 31
0.0
  0
LINE
  8
L-ZISSEN
 10
251.0
 20
470.0
 30
0.0
 11
280.5
 21
470.0
 31
0.0
  0
LINE
  8
L-ZISSEN
 10
280.5
 20
569.545268
 30
0.0
 11
280.5
 21
570.0
 31
0.0
  0
LINE
  8
L-ZISSEN
 10
449.0
 20
398.0
 30
0.0
 11
390.246951
 21
398.0
 31
0.0
  0
LINE
  8
L-ZISSEN
 10
432.0
 20
326.0
 30
0.0
 11
268.0
 21
326.0
 31
0.0
  0
LINE
  8
L-ZISSEN
 10
390.246951
 20
394.0
 30
0.0
 11
369.753049
 21
394.0
 31
0.0
  0
LINE
  8
L-ZISSEN
 10
419.5
 20
398.0
 30
0.0
 11
419.5
 21
326.0
 31
0.0
  0
LINE
  8
L-ZISSEN
 10
390.246951
 20
398.0
 30
0.0
 11
390.246951
 21
326.0
 31
0.0
  0
LINE
  8
L-ZISSEN
 10
369.753049
 20
407.0
 30
0.0
 11
369.753049
 21
326.0
 31
0.0
  0
LINE
  8
L-ZISSEN
 10
309.753049
 20
394.0
 30
0.0
 11
330.246951
 21
394.0
 31
0.0
  0
LINE
  8
L-ZISSEN
 10
330.246951
 20
407.0
 30
0.0
 11
330.246951
 21
326.0
 31
0.0
  0
LINE
  8
L-ZISSEN
 10
309.753049
 20
398.0
 30
0.0
 11
309.753049
 21
326.0
 31
0.0
  0
LINE
  8
L-ZISSEN
 10
280.5
 20
398.0
 30
0.0
 11
280.5
 21
326.0
 31
0.0
  0
LINE
  8
L-ZISSEN
 10
309.753049
 20
398.0
 30
0.0
 11
251.0
 21
398.0
 31
0.0
  0
LINE
  8
L-ZISSEN
 10
328.0
 20
406.5
 30
0.0
 11
328.0
 21
394.0
 31
0.0
  0
LINE
  8
L-ZISSEN
 10
312.0
 20
406.5
 30
0.0
 11
312.0
 21
394.0
 31
0.0
  0
LINE
  8
L-ZISSEN
 10
312.0
 20
406.5
 30
0.0
 11
328.0
 21
406.5
 31
0.0
  0
LINE
  8
L-ZISSEN
 10
388.0
 20
406.5
 30
0.0
 11
372.0
 21
406.5
 31
0.0
  0
LINE
  8
L-ZISSEN
 10
388.0
 20
406.5
 30
0.0
 11
388.0
 21
394.0
 31
0.0
  0
LINE
  8
L-ZISSEN
 10
372.0
 20
406.5
 30
0.0
 11
372.0
 21
394.0
 31
0.0
  0
LINE
  8
L-TYUSIN
 10
610.0
 20
358.0
 30
0.0
 11
730.0
 21
358.0
 31
0.0
  0
LINE
  8
L-ZISSEN
 10
620.0
 20
398.0
 30
0.0
 11
620.0
 21
318.0
 31
0.0
  0
LINE
  8
L-ZISSEN
 10
620.0
 20
318.0
 30
0.0
 11
720.0
 21
318.0
 31
0.0
  0
LINE
  8
L-ZISSEN
 10
720.0
 20
318.0
 30
0.0
 11
720.0
 21
398.0
 31
0.0
  0
LINE
  8
L-ZISSEN
 10
720.0
 20
398.0
 30
0.0
 11
683.0
 21
398.0
 31
0.0
  0
LINE
  8
L-ZISSEN
 10
683.0
 20
393.707142
 30
0.0
 11
683.0
 21
406.0
 31
0.0
  0
LINE
  8
L-ZISSEN
 10
683.0
 20
406.0
 30
0.0
 11
657.0
 21
406.0
 31
0.0
  0
LINE
  8
L-ZISSEN
 10
657.0
 20
406.0
 30
0.0
 11
657.0
 21
393.707142
 31
0.0
  0
ARC
  8
L-ZISSEN
 10
670.0
 20
358.0
 30
0.0
 40
38.0
 50
110.00519
 51
69.99481
  0
LINE
  8
L-ZISSEN
 10
657.0
 20
398.0
 30
0.0
 11
620.0
 21
398.0
 31
0.0
  0
CIRCLE
  8
L-ZISSEN
 10
710.0
 20
388.0
 30
0.0
 40
6.5
  0
CIRCLE
  8
L-ZISSEN
 10
630.0
 20
388.0
 30
0.0
 40
6.5
  0
CIRCLE
  8
L-ZISSEN
 10
630.0
 20
328.0
 30
0.0
 40
6.5
  0
CIRCLE
  8
L-ZISSEN
 10
710.0
 20
328.0
 30
0.0
 40
6.5
  0
LINE
  8
L-ZISSEN
 10
630.0
 20
407.0
 30
0.0
 11
710.0
 21
407.0
 31
0.0
  0
LINE
  8
L-ZISSEN
 10
630.0
 20
407.0
 30
0.0
 11
630.0
 21
398.0
 31
0.0
  0
LINE
  8
L-ZISSEN
 10
710.0
 20
407.0
 30
0.0
 11
710.0
 21
398.0
 31
0.0
  0
LINE
  8
L-ZISSEN
 10
615.0
 20
326.0
 30
0.0
 11
620.0
 21
326.0
 31
0.0
  0
LINE
  8
L-ZISSEN
 10
720.0
 20
326.0
 30
0.0
 11
725.0
 21
326.0
 31
0.0
  0
LINE
  8
L-ZISSEN
 10
722.0
 20
406.5
 30
0.0
 11
710.0
 21
406.5
 31
0.0
  0
LINE
  8
L-ZISSEN
 10
722.0
 20
406.5
 30
0.0
 11
722.0
 21
394.0
 31
0.0
  0
LINE
  8
L-ZISSEN
 10
720.0
 20
394.0
 30
0.0
 11
725.0
 21
394.0
 31
0.0
  0
LINE
  8
L-ZISSEN
 10
725.0
 20
240.0
 30
0.0
 11
725.0
 21
394.0
 31
0.0
  0
LINE
  8
L-ZISSEN
 10
615.0
 20
240.0
 30
0.0
 11
615.0
 21
264.0
 31
0.0
  0
LINE
  8
L-ZISSEN
 10
618.0
 20
406.5
 30
0.0
 11
618.0
 21
394.0
 31
0.0
  0
LINE
  8
L-ZISSEN
 10
618.0
 20
406.5
 30
0.0
 11
630.0
 21
406.5
 31
0.0
  0
LINE
  8
L-ZISSEN
 10
620.0
 20
394.0
 30
0.0
 11
615.0
 21
394.0
 31
0.0
  0
LINE
  8
L-ZISSEN
 10
615.0
 20
296.0
 30
0.0
 11
615.0
 21
394.0
 31
0.0
  0
LINE
  8
L-ZISSEN
 10
512.0
 20
406.0
 30
0.0
 11
512.0
 21
320.0
 31
0.0
  0
LINE
  8
L-ZISSEN
 10
449.0
 20
398.0
 30
0.0
 11
449.0
 21
318.0
 31
0.0
  0
LINE
  8
L-ZISSEN
 10
512.0
 20
320.0
 30
0.0
 11
449.0
 21
320.0
 31
0.0
  0
LINE
  8
L-ZISSEN
 10
512.0
 20
406.0
 30
0.0
 11
432.0
 21
406.0
 31
0.0
  0
LINE
  8
L-ZISSEN
 10
458.5
 20
394.5
 30
0.0
 11
449.0
 21
394.5
 31
0.0
  0
LINE
  8
L-ZISSEN
 10
458.5
 20
381.5
 30
0.0
 11
449.0
 21
381.5
 31
0.0
  0
LINE
  8
L-ZISSEN
 10
458.5
 20
394.5
 30
0.0
 11
458.5
 21
381.5
 31
0.0
  0
LINE
  8
L-ZISSEN
 10
458.5
 20
334.5
 30
0.0
 11
449.0
 21
334.5
 31
0.0
  0
LINE
  8
L-ZISSEN
 10
458.5
 20
321.5
 30
0.0
 11
449.0
 21
321.5
 31
0.0
  0
LINE
  8
L-ZISSEN
 10
458.5
 20
321.5
 30
0.0
 11
458.5
 21
334.5
 31
0.0
  0
LINE
  8
L-ZISSEN
 10
512.0
 20
482.0
 30
0.0
 11
458.5
 21
482.0
 31
0.0
  0
LINE
  8
L-ZISSEN
 10
512.0
 20
558.0
 30
0.0
 11
458.5
 21
558.0
 31
0.0
  0
LINE
  8
L-ZISSEN
 10
512.0
 20
558.0
 30
0.0
 11
512.0
 21
482.0
 31
0.0
  0
LINE
  8
L-ZISSEN
 10
460.0
 20
558.0
 30
0.0
 11
460.0
 21
575.0
 31
0.0
  0
LINE
  8
L-ZISSEN
 10
432.0
 20
533.0
 30
0.0
 11
512.0
 21
533.0
 31
0.0
  0
LINE
  8
L-ZISSEN
 10
432.0
 20
507.0
 30
0.0
 11
512.0
 21
507.0
 31
0.0
  0
LINE
  8
L-ZISSEN
 10
449.0
 20
470.0
 30
0.0
 11
449.0
 21
507.0
 31
0.0
  0
LINE
  8
L-ZISSEN
 10
458.5
 20
473.5
 30
0.0
 11
449.0
 21
473.5
 31
0.0
  0
LINE
  8
L-ZISSEN
 10
458.5
 20
486.5
 30
0.0
 11
449.0
 21
486.5
 31
0.0
  0
LINE
  8
L-ZISSEN
 10
458.5
 20
486.5
 30
0.0
 11
458.5
 21
473.5
 31
0.0
  0
LINE
  8
L-ZISSEN
 10
458.5
 20
566.5
 30
0.0
 11
449.0
 21
566.5
 31
0.0
  0
LINE
  8
L-ZISSEN
 10
458.5
 20
553.5
 30
0.0
 11
458.5
 21
566.5
 31
0.0
  0
LINE
  8
L-ZISSEN
 10
458.5
 20
553.5
 30
0.0
 11
449.0
 21
553.5
 31
0.0
  0
LINE
  8
L-ZISSEN
 10
241.5
 20
394.5
 30
0.0
 11
241.5
 21
381.5
 31
0.0
  0
LINE
  8
L-ZISSEN
 10
241.5
 20
381.5
 30
0.0
 11
251.0
 21
381.5
 31
0.0
  0
LINE
  8
L-ZISSEN
 10
241.5
 20
394.5
 30
0.0
 11
251.0
 21
394.5
 31
0.0
  0
LINE
  8
L-ZISSEN
 10
241.5
 20
334.5
 30
0.0
 11
251.0
 21
334.5
 31
0.0
  0
LINE
  8
L-ZISSEN
 10
241.5
 20
321.5
 30
0.0
 11
241.5
 21
334.5
 31
0.0
  0
LINE
  8
L-ZISSEN
 10
241.5
 20
321.5
 30
0.0
 11
251.0
 21
321.5
 31
0.0
  0
LINE
  8
L-ZISSEN
 10
251.0
 20
398.0
 30
0.0
 11
251.0
 21
318.0
 31
0.0
  0
LINE
  8
L-ZISSEN
 10
251.0
 20
318.0
 30
0.0
 11
268.0
 21
318.0
 31
0.0
  0
LINE
  8
L-ZISSEN
 10
449.0
 20
318.0
 30
0.0
 11
432.0
 21
318.0
 31
0.0
  0
LINE
  8
L-ZISSEN
 10
241.5
 20
486.5
 30
0.0
 11
251.0
 21
486.5
 31
0.0
  0
LINE
  8
L-ZISSEN
 10
241.5
 20
473.5
 30
0.0
 11
251.0
 21
473.5
 31
0.0
  0
LINE
  8
L-ZISSEN
 10
251.0
 20
470.0
 30
0.0
 11
251.0
 21
507.0
 31
0.0
  0
LINE
  8
L-ZISSEN
 10
241.5
 20
553.5
 30
0.0
 11
251.0
 21
553.5
 31
0.0
  0
LINE
  8
L-ZISSEN
 10
241.5
 20
566.5
 30
0.0
 11
251.0
 21
566.5
 31
0.0
  0
LINE
  8
L-ZISSEN
 10
241.5
 20
553.5
 30
0.0
 11
241.5
 21
566.5
 31
0.0
  0
LINE
  8
L-ZISSEN
 10
241.5
 20
486.5
 30
0.0
 11
241.5
 21
473.5
 31
0.0
  0
LINE
  8
L-ZISSEN
 10
240.0
 20
558.0
 30
0.0
 11
240.0
 21
575.0
 31
0.0
  0
LINE
  8
L-ZISSEN
 10
512.0
 20
393.707142
 30
0.0
 11
458.5
 21
393.707142
 31
0.0
  0
LINE
  8
L-ZISSEN
 10
449.0
 20
722.0
 30
0.0
 11
432.0
 21
722.0
 31
0.0
  0
LINE
  8
L-ZISSEN
 10
251.0
 20
722.0
 30
0.0
 11
268.0
 21
722.0
 31
0.0
  0
LINE
  8
L-ZISSEN
 10
251.0
 20
642.0
 30
0.0
 11
251.0
 21
722.0
 31
0.0
  0
LINE
  8
L-ZISSEN
 10
241.5
 20
718.5
 30
0.0
 11
251.0
 21
718.5
 31
0.0
  0
LINE
  8
L-ZISSEN
 10
241.5
 20
718.5
 30
0.0
 11
241.5
 21
705.5
 31
0.0
  0
LINE
  8
L-ZISSEN
 10
241.5
 20
705.5
 30
0.0
 11
251.0
 21
705.5
 31
0.0
  0
LINE
  8
L-ZISSEN
 10
241.5
 20
645.5
 30
0.0
 11
251.0
 21
645.5
 31
0.0
  0
LINE
  8
L-ZISSEN
 10
241.5
 20
658.5
 30
0.0
 11
251.0
 21
658.5
 31
0.0
  0
LINE
  8
L-ZISSEN
 10
241.5
 20
645.5
 30
0.0
 11
241.5
 21
658.5
 31
0.0
  0
LINE
  8
L-ZISSEN
 10
458.5
 20
718.5
 30
0.0
 11
458.5
 21
705.5
 31
0.0
  0
LINE
  8
L-ZISSEN
 10
458.5
 20
718.5
 30
0.0
 11
449.0
 21
718.5
 31
0.0
  0
LINE
  8
L-ZISSEN
 10
458.5
 20
705.5
 30
0.0
 11
449.0
 21
705.5
 31
0.0
  0
LINE
  8
L-ZISSEN
 10
458.5
 20
645.5
 30
0.0
 11
458.5
 21
658.5
 31
0.0
  0
LINE
  8
L-ZISSEN
 10
458.5
 20
658.5
 30
0.0
 11
449.0
 21
658.5
 31
0.0
  0
LINE
  8
L-ZISSEN
 10
458.5
 20
645.5
 30
0.0
 11
449.0
 21
645.5
 31
0.0
  0
LINE
  8
L-ZISSEN
 10
449.0
 20
642.0
 30
0.0
 11
449.0
 21
722.0
 31
0.0
  0
LINE
  8
L-ZISSEN
 10
402.0
 20
633.5
 30
0.0
 11
402.0
 21
646.0
 31
0.0
  0
LINE
  8
L-ZISSEN
 10
418.0
 20
633.5
 30
0.0
 11
418.0
 21
646.0
 31
0.0
  0
LINE
  8
L-ZISSEN
 10
418.0
 20
633.5
 30
0.0
 11
402.0
 21
633.5
 31
0.0
  0
LINE
  8
L-ZISSEN
 10
282.0
 20
633.5
 30
0.0
 11
298.0
 21
633.5
 31
0.0
  0
LINE
  8
L-ZISSEN
 10
282.0
 20
633.5
 30
0.0
 11
282.0
 21
646.0
 31
0.0
  0
LINE
  8
L-ZISSEN
 10
298.0
 20
633.5
 30
0.0
 11
298.0
 21
646.0
 31
0.0
  0
LINE
  8
L-ZISSEN
 10
279.753049
 20
642.0
 30
0.0
 11
251.0
 21
642.0
 31
0.0
  0
LINE
  8
L-ZISSEN
 10
279.753049
 20
642.0
 30
0.0
 11
279.753049
 21
714.0
 31
0.0
  0
LINE
  8
L-ZISSEN
 10
300.246951
 20
633.0
 30
0.0
 11
300.246951
 21
714.0
 31
0.0
  0
LINE
  8
L-ZISSEN
 10
279.753049
 20
646.0
 30
0.0
 11
300.246951
 21
646.0
 31
0.0
  0
LINE
  8
L-ZISSEN
 10
399.753049
 20
633.0
 30
0.0
 11
399.753049
 21
714.0
 31
0.0
  0
LINE
  8
L-ZISSEN
 10
420.246951
 20
642.0
 30
0.0
 11
420.246951
 21
714.0
 31
0.0
  0
LINE
  8
L-ZISSEN
 10
420.246951
 20
646.0
 30
0.0
 11
399.753049
 21
646.0
 31
0.0
  0
LINE
  8
L-ZISSEN
 10
432.0
 20
714.0
 30
0.0
 11
268.0
 21
714.0
 31
0.0
  0
LINE
  8
L-ZISSEN
 10
449.0
 20
642.0
 30
0.0
 11
420.246951
 21
642.0
 31
0.0
  0
LINE
  8
L-TYUSIN
 10
183.0
 20
682.0
 30
0.0
 11
517.0
 21
682.0
 31
0.0
  0
LINE
  8
L-ZISSEN
 10
432.0
 20
633.0
 30
0.0
 11
432.0
 21
725.0
 31
0.0
  0
LINE
  8
L-ZISSEN
 10
268.0
 20
633.0
 30
0.0
 11
268.0
 21
725.0
 31
0.0
  0
LINE
  8
L-ZISSEN
 10
432.0
 20
633.0
 30
0.0
 11
268.0
 21
633.0
 31
0.0
  0
LINE
  8
L-ZISSEN
 10
432.0
 20
724.0
 30
0.0
 11
268.0
 21
724.0
 31
0.0
  0
LINE
  8
L-ZISSEN
 10
432.0
 20
465.0
 30
0.0
 11
432.0
 21
575.0
 31
0.0
  0
CIRCLE
  8
L-ZISSEN
 10
270.0
 20
280.0
 30
0.0
 40
19.476
  0
CIRCLE
  8
L-ZISSEN
 10
350.0
 20
260.0
 30
0.0
 40
19.476
  0
CIRCLE
  8
L-ZISSEN
 10
430.0
 20
280.0
 30
0.0
 40
19.476
  0
CIRCLE
  8
L-ZISSEN
 10
310.0
 20
780.0
 30
0.0
 40
19.476
  0
CIRCLE
  8
L-ZISSEN
 10
390.0
 20
780.0
 30
0.0
 40
19.476
  0
SOLID
  8
L-ZISSEN
 10
348.737328
 20
258.413566
 30
0.0
 11
349.3201
 21
258.089804
 31
0.0
 12
350.0
 22
260.0
 32
0.0
 13
350.0
 23
260.0
 33
0.0
  0
LINE
  8
L-ZISSEN
 10
349.028714
 20
258.251685
 30
0.0
 11
325.0
 21
215.0
 31
0.0
  0
LINE
  8
L-ZISSEN
 10
325.0
 20
215.0
 30
0.0
 11
323.0
 21
215.0
 31
0.0
  0
TEXT
  8
L-ZISSEN
 10
290.357143
 20
212.75
 30
0.0
 40
4.5
  1
"1" PORT
  0
TEXT
  8
L-ZISSEN
 10
290.0
 20
205.0
 30
0.0
 40
4.5
  1
Rc 1-1/4
  0
TEXT
  8
L-ZISSEN
 10
290.0
 20
195.0
 30
0.0
 40
4.5
  1
Rc 1-1/2
  0
TEXT
  8
L-ZISSEN
 10
75.0
 20
820.0
 30
0.0
 40
4.5
  1
MODEL NO. : MVM-491-  D
  0
TEXT
  8
L-ZISSEN
 10
159.5
 20
824.0
 30
0.0
 40
4.5
  1
12
  0
TEXT
  8
L-ZISSEN
 10
159.5
 20
817.0
 30
0.0
 40
4.5
  1
14
  0
LINE
  8
L-ZISSEN
 10
188.0
 20
406.0
 30
0.0
 11
268.0
 21
406.0
 31
0.0
  0
LINE
  8
L-ZISSEN
 10
188.0
 20
393.707142
 30
0.0
 11
241.5
 21
393.707142
 31
0.0
  0
LINE
  8
L-ZISSEN
 10
188.0
 20
406.0
 30
0.0
 11
188.0
 21
320.0
 31
0.0
  0
LINE
  8
L-ZISSEN
 10
188.0
 20
320.0
 30
0.0
 11
251.0
 21
320.0
 31
0.0
  0
LINE
  8
L-TYUSIN
 10
478.0
 20
245.0
 30
0.0
 11
478.0
 21
215.0
 31
0.0
  0
LINE
  8
L-TYUSIN
 10
222.0
 20
245.0
 30
0.0
 11
222.0
 21
215.0
 31
0.0
  0
LINE
  8
L-TYUSIN
 10
478.0
 20
825.0
 30
0.0
 11
478.0
 21
795.0
 31
0.0
  0
LINE
  8
L-TYUSIN
 10
222.0
 20
825.0
 30
0.0
 11
222.0
 21
795.0
 31
0.0
  0
LINE
  8
L-ZISSEN
 10
512.0
 20
720.0
 30
0.0
 11
449.0
 21
720.0
 31
0.0
  0
LINE
  8
L-ZISSEN
 10
512.0
 20
646.292858
 30
0.0
 11
458.5
 21
646.292858
 31
0.0
  0
LINE
  8
L-ZISSEN
 10
512.0
 20
634.0
 30
0.0
 11
432.0
 21
634.0
 31
0.0
  0
LINE
  8
L-ZISSEN
 10
512.0
 20
634.0
 30
0.0
 11
512.0
 21
720.0
 31
0.0
  0
LINE
  8
L-ZISSEN
 10
188.0
 20
634.0
 30
0.0
 11
268.0
 21
634.0
 31
0.0
  0
LINE
  8
L-ZISSEN
 10
188.0
 20
646.292858
 30
0.0
 11
241.5
 21
646.292858
 31
0.0
  0
LINE
  8
L-ZISSEN
 10
188.0
 20
634.0
 30
0.0
 11
188.0
 21
720.0
 31
0.0
  0
LINE
  8
L-ZISSEN
 10
188.0
 20
720.0
 30
0.0
 11
251.0
 21
720.0
 31
0.0
  0
LINE
  8
L-ZISSEN
 10
268.0
 20
465.0
 30
0.0
 11
268.0
 21
575.0
 31
0.0
  0
LINE
  8
L-ZISSEN
 10
188.0
 20
482.0
 30
0.0
 11
241.5
 21
482.0
 31
0.0
  0
LINE
  8
L-ZISSEN
 10
268.0
 20
507.0
 30
0.0
 11
188.0
 21
507.0
 31
0.0
  0
LINE
  8
L-ZISSEN
 10
268.0
 20
533.0
 30
0.0
 11
188.0
 21
533.0
 31
0.0
  0
LINE
  8
L-ZISSEN
 10
188.0
 20
558.0
 30
0.0
 11
241.5
 21
558.0
 31
0.0
  0
LINE
  8
L-ZISSEN
 10
188.0
 20
558.0
 30
0.0
 11
188.0
 21
482.0
 31
0.0
  0
LINE
  8
L-ZISSEN
 10
188.0
 20
62.0
 30
0.0
 11
219.749197
 21
62.0
 31
0.0
  0
LINE
  8
L-ZISSEN
 10
188.0
 20
138.0
 30
0.0
 11
188.0
 21
62.0
 31
0.0
  0
LINE
  8
L-ZISSEN
 10
188.0
 20
138.0
 30
0.0
 11
219.749197
 21
138.0
 31
0.0
  0
LINE
  8
L-ZISSEN
 10
512.0
 20
138.0
 30
0.0
 11
480.250803
 21
138.0
 31
0.0
  0
LINE
  8
L-ZISSEN
 10
512.0
 20
138.0
 30
0.0
 11
512.0
 21
62.0
 31
0.0
  0
LINE
  8
L-ZISSEN
 10
512.0
 20
62.0
 30
0.0
 11
480.250803
 21
62.0
 31
0.0
  0
LINE
  8
L-ZISSEN
 10
449.0
 20
533.0
 30
0.0
 11
449.0
 21
570.0
 31
0.0
  0
LINE
  8
L-ZISSEN
 10
251.0
 20
533.0
 30
0.0
 11
251.0
 21
570.0
 31
0.0
  0
LINE
  8
L-TYUSIN
 10
365.0
 20
644.0
 30
0.0
 11
385.0
 21
644.0
 31
0.0
  0
LINE
  8
L-TYUSIN
 10
375.0
 20
654.0
 30
0.0
 11
375.0
 21
634.0
 31
0.0
  0
CIRCLE
  8
L-ZISSEN
 10
375.0
 20
644.0
 30
0.0
 40
5.7225
  0
CIRCLE
  8
L-ZISSEN
 10
325.0
 20
644.0
 30
0.0
 40
5.7225
  0
LINE
  8
L-TYUSIN
 10
325.0
 20
654.0
 30
0.0
 11
325.0
 21
634.0
 31
0.0
  0
LINE
  8
L-TYUSIN
 10
335.0
 20
644.0
 30
0.0
 11
315.0
 21
644.0
 31
0.0
  0
LINE
  8
L-TYUSIN
 10
325.0
 20
565.0
 30
0.0
 11
325.0
 21
555.0
 31
0.0
  0
LINE
  8
L-TYUSIN
 10
375.0
 20
565.0
 30
0.0
 11
375.0
 21
555.0
 31
0.0
  0
LINE
  8
L-TYUSIN
 10
705.0
 20
396.0
 30
0.0
 11
727.0
 21
396.0
 31
0.0
  0
ENDSEC
  0
EOF
