  0
SECTION
  2
HEADER
  9
$ACADVER
  1
AC1012
  9
$DWGCODEPAGE
  3
dos932
  9
$INSBASE
 10
0.0
 20
0.0
 30
0.0
  9
$EXTMIN
 10
101.0955526129057
 20
-30.17404367708218
 30
-0.0000000349181948
  9
$EXTMAX
 10
795.0206470461803
 20
520.161596596062
 30
0.0000000814935747
  9
$LIMMIN
 10
0.0
 20
0.0
  9
$LIMMAX
 10
841.0
 20
594.0
  9
$ORTHOMODE
 70
     0
  9
$REGENMODE
 70
     1
  9
$FILLMODE
 70
     1
  9
$QTEXTMODE
 70
     0
  9
$MIRRTEXT
 70
     0
  9
$DRAGMODE
 70
     2
  9
$LTSCALE
 40
0.8
  9
$OSMODE
 70
    37
  9
$ATTMODE
 70
     1
  9
$TEXTSIZE
 40
4.5
  9
$TRACEWID
 40
0.05
  9
$TEXTSTYLE
  7
STANDARD
  9
$CLAYER
  8
L-TYUSIN
  9
$CELTYPE
  6
CONTINUOUS
  9
$CECOLOR
 62
   256
  9
$CELTSCALE
 40
1.0
  9
$DELOBJ
 70
     1
  9
$DISPSILH
 70
     0
  9
$DIMSCALE
 40
2.0
  9
$DIMASZ
 40
2.0
  9
$DIMEXO
 40
2.0
  9
$DIMDLI
 40
0.38
  9
$DIMRND
 40
0.0
  9
$DIMDLE
 40
1.0
  9
$DIMEXE
 40
2.0
  9
$DIMTP
 40
0.0
  9
$DIMTM
 40
0.0
  9
$DIMTXT
 40
2.799999999999998
  9
$DIMCEN
 40
0.09
  9
$DIMTSZ
 40
0.0
  9
$DIMTOL
 70
     0
  9
$DIMLIM
 70
     0
  9
$DIMTIH
 70
     0
  9
$DIMTOH
 70
     0
  9
$DIMSE1
 70
     0
  9
$DIMSE2
 70
     0
  9
$DIMTAD
 70
     1
  9
$DIMZIN
 70
     0
  9
$DIMBLK
  1

  9
$DIMASO
 70
     1
  9
$DIMSHO
 70
     0
  9
$DIMPOST
  1

  9
$DIMAPOST
  1

  9
$DIMALT
 70
     0
  9
$DIMALTD
 70
     2
  9
$DIMALTF
 40
25.4
  9
$DIMLFAC
 40
1.0
  9
$DIMTOFL
 70
     1
  9
$DIMTVP
 40
0.0
  9
$DIMTIX
 70
     1
  9
$DIMSOXD
 70
     0
  9
$DIMSAH
 70
     0
  9
$DIMBLK1
  1

  9
$DIMBLK2
  1

  9
$DIMSTYLE
  2
STANDARD
  9
$DIMCLRD
 70
     0
  9
$DIMCLRE
 70
     0
  9
$DIMCLRT
 70
     0
  9
$DIMTFAC
 40
1.0
  9
$DIMGAP
 40
1.0
  9
$DIMJUST
 70
     0
  9
$DIMSD1
 70
     0
  9
$DIMSD2
 70
     0
  9
$DIMTOLJ
 70
     1
  9
$DIMTZIN
 70
     0
  9
$DIMALTZ
 70
     0
  9
$DIMALTTZ
 70
     0
  9
$DIMFIT
 70
     3
  9
$DIMUPT
 70
     0
  9
$DIMUNIT
 70
     2
  9
$DIMDEC
 70
     1
  9
$DIMTDEC
 70
     4
  9
$DIMALTU
 70
     2
  9
$DIMALTTD
 70
     2
  9
$DIMTXSTY
  7
STANDARD
  9
$DIMAUNIT
 70
     0
  9
$LUNITS
 70
     2
  9
$LUPREC
 70
     4
  9
$SKETCHINC
 40
0.1
  9
$FILLETRAD
 40
0.0
  9
$AUNITS
 70
     0
  9
$AUPREC
 70
     0
  9
$MENU
  1
acad
  9
$ELEVATION
 40
0.0
  9
$PELEVATION
 40
0.0
  9
$THICKNESS
 40
0.0
  9
$LIMCHECK
 70
     0
  9
$BLIPMODE
 70
     0
  9
$CHAMFERA
 40
0.0
  9
$CHAMFERB
 40
0.0
  9
$CHAMFERC
 40
0.0
  9
$CHAMFERD
 40
0.0
  9
$SKPOLY
 70
     0
  9
$TDCREATE
 40
2449002.661314352
  9
$TDUPDATE
 40
2453237.346978356
  9
$TDINDWG
 40
0.4268390046
  9
$TDUSRTIMER
 40
0.4268384259
  9
$USRTIMER
 70
     1
  9
$ANGBASE
 50
0.0
  9
$ANGDIR
 70
     0
  9
$PDMODE
 70
     0
  9
$PDSIZE
 40
0.0
  9
$PLINEWID
 40
0.0
  9
$COORDS
 70
     0
  9
$SPLFRAME
 70
     0
  9
$SPLINETYPE
 70
     6
  9
$SPLINESEGS
 70
     8
  9
$ATTDIA
 70
     0
  9
$ATTREQ
 70
     1
  9
$HANDLING
 70
-16383
  9
$HANDSEED
  5
25B
  9
$SURFTAB1
 70
     6
  9
$SURFTAB2
 70
     6
  9
$SURFTYPE
 70
     6
  9
$SURFU
 70
     6
  9
$SURFV
 70
     6
  9
$UCSNAME
  2

  9
$UCSORG
 10
0.0
 20
0.0
 30
0.0
  9
$UCSXDIR
 10
1.0
 20
0.0
 30
0.0
  9
$UCSYDIR
 10
0.0
 20
1.0
 30
0.0
  9
$PUCSNAME
  2

  9
$PUCSORG
 10
0.0
 20
0.0
 30
0.0
  9
$PUCSXDIR
 10
1.0
 20
0.0
 30
0.0
  9
$PUCSYDIR
 10
0.0
 20
1.0
 30
0.0
  9
$USERI1
 70
     0
  9
$USERI2
 70
     0
  9
$USERI3
 70
     0
  9
$USERI4
 70
     0
  9
$USERI5
 70
     0
  9
$USERR1
 40
0.0
  9
$USERR2
 40
0.0
  9
$USERR3
 40
0.0
  9
$USERR4
 40
0.0
  9
$USERR5
 40
0.0
  9
$WORLDVIEW
 70
     1
  9
$SHADEDGE
 70
     3
  9
$SHADEDIF
 70
    70
  9
$TILEMODE
 70
     1
  9
$MAXACTVP
 70
    48
  9
$PINSBASE
 10
0.0
 20
0.0
 30
0.0
  9
$PLIMCHECK
 70
     0
  9
$PEXTMIN
 10
1.126749941683189
 20
0.7847499828638993
 30
0.0
  9
$PEXTMAX
 10
10.14074947514871
 20
7.062749845775093
 30
0.0
  9
$PLIMMIN
 10
-0.2112501249538632
 20
-0.2112499935420479
  9
$PLIMMAX
 10
11.47874967319758
 20
8.058749953592855
  9
$UNITMODE
 70
     0
  9
$VISRETAIN
 70
     0
  9
$PLINEGEN
 70
     0
  9
$PSLTSCALE
 70
     0
  9
$TREEDEPTH
 70
  3020
  9
$PICKSTYLE
 70
     1
  9
$CMLSTYLE
  2
STANDARD
  9
$CMLJUST
 70
     0
  9
$CMLSCALE
 40
1.0
  9
$SAVEIMAGES
 70
     1
  0
ENDSEC
  0
SECTION
  2
CLASSES
  0
CLASS
  1
DICTIONARYVAR
  2
AcDbDictionaryVar
  3
AutoCAD 2000
 90
    32768
280
     0
281
     0
  0
CLASS
  1
HATCH
  2
AcDbHatch
  3
AutoCAD 2000
 90
    32768
280
     0
281
     1
  0
CLASS
  1
LWPOLYLINE
  2
AcDbPolyline
  3
AutoCAD 2000
 90
    32768
280
     0
281
     1
  0
CLASS
  1
ACDBDICTIONARYWDFLT
  2
AcDbDictionaryWithDefault
  3
AutoCAD 2000
 90
    32768
280
     0
281
     0
  0
CLASS
  1
ACDBPLACEHOLDER
  2
AcDbPlaceHolder
  3
AutoCAD 2000
 90
    32768
280
     0
281
     0
  0
CLASS
  1
LAYOUT
  2
AcDbLayout
  3
AutoCAD 2000
 90
    32768
280
     0
281
     0
  0
CLASS
  1
LONG_TRANSACTION
  2
AcDbLongTransaction
  3
AutoCAD 2000
 90
    32768
280
     0
281
     0
  0
CLASS
  1
LWPOLYLINE
  2
AcDbPolyline
  3
AutoCAD 2000
 90
    32768
280
     0
281
     1
  0
CLASS
  1
HATCH
  2
AcDbHatch
  3
AutoCAD 2000
 90
    32768
280
     0
281
     1
  0
CLASS
  1
XRECORD
  2
AcDbXrecord
  3
AutoCAD 2000
 90
    32768
280
     0
281
     0
  0
CLASS
  1
LONG_TRANSACTION
  2
AcDbLongTransaction
  3
AutoCAD 2000
 90
    32768
280
     0
281
     0
  0
CLASS
  1
LWPOLYLINE
  2
AcDbPolyline
  3
AutoCAD 2000
 90
    32768
280
     0
281
     1
  0
CLASS
  1
HATCH
  2
AcDbHatch
  3
AutoCAD 2000
 90
    32768
280
     0
281
     1
  0
CLASS
  1
XRECORD
  2
AcDbXrecord
  3
AutoCAD 2000
 90
    32768
280
     0
281
     0
  0
CLASS
  1
LONG_TRANSACTION
  2
AcDbLongTransaction
  3
AutoCAD 2000
 90
    32768
280
     0
281
     0
  0
CLASS
  1
LWPOLYLINE
  2
AcDbPolyline
  3
AutoCAD 2000
 90
    32768
280
     0
281
     1
  0
CLASS
  1
HATCH
  2
AcDbHatch
  3
AutoCAD 2000
 90
    32768
280
     0
281
     1
  0
CLASS
  1
XRECORD
  2
AcDbXrecord
  3
AutoCAD 2000
 90
    32768
280
     0
281
     0
  0
ENDSEC
  0
SECTION
  2
TABLES
  0
TABLE
  2
VPORT
  5
1C
330
0
100
AcDbSymbolTable
 70
     2
  0
VPORT
  5
258
330
1C
100
AcDbSymbolTableRecord
100
AcDbViewportTableRecord
  2
*ACTIVE
 70
     0
 10
0.0
 20
0.0
 11
1.0
 21
1.0
 12
448.058099829543
 22
244.9937764594899
 13
0.0
 23
0.0
 14
5.0
 24
5.0
 15
0.0
 25
0.0
 16
0.0
 26
0.0
 36
1.0
 17
0.0
 27
0.0
 37
0.0
 40
556.7597917160214
 41
1.84990253411306
 42
50.0
 43
0.0
 44
0.0
 50
0.0
 51
0.0
 71
     0
 72
   100
 73
     1
 74
     0
 75
     0
 76
     0
 77
     0
 78
     0
  0
ENDTAB
  0
TABLE
  2
LTYPE
  5
17
330
0
100
AcDbSymbolTable
 70
     2
  0
LTYPE
  5
18
330
17
100
AcDbSymbolTableRecord
100
AcDbLinetypeTableRecord
  2
BYBLOCK
 70
     0
  3

 72
    65
 73
     0
 40
0.0
  0
LTYPE
  5
19
330
17
100
AcDbSymbolTableRecord
100
AcDbLinetypeTableRecord
  2
BYLAYER
 70
     0
  3

 72
    65
 73
     0
 40
0.0
  0
LTYPE
  5
A
330
17
100
AcDbSymbolTableRecord
100
AcDbLinetypeTableRecord
  2
CONTINUOUS
 70
     0
  3
Solid line
 72
    65
 73
     0
 40
0.0
  0
LTYPE
  5
25
330
17
100
AcDbSymbolTableRecord
100
AcDbLinetypeTableRecord
  2
CENTER
 70
     0
  3
____ _ ____ _ ____ _ ____ _ 
 72
    65
 73
     4
 40
60.0
 49
45.0
 74
     0
 49
-5.0
 74
     0
 49
5.0
 74
     0
 49
-5.0
 74
     0
  0
ENDTAB
  0
TABLE
  2
LAYER
  5
13
330
0
100
AcDbSymbolTable
 70
     3
  0
LAYER
  5
5
330
13
100
AcDbSymbolTableRecord
100
AcDbLayerTableRecord
  2
0
 70
     0
 62
     7
  6
CONTINUOUS
  0
LAYER
  5
2D
330
13
100
AcDbSymbolTableRecord
100
AcDbLayerTableRecord
  2
L-ZISSEN
 70
     0
 62
     7
  6
CONTINUOUS
  0
LAYER
  5
24
330
13
100
AcDbSymbolTableRecord
100
AcDbLayerTableRecord
  2
L-TYUSIN
 70
     0
 62
     1
  6
CENTER
  0
ENDTAB
  0
TABLE
  2
STYLE
  5
14
330
0
100
AcDbSymbolTable
 70
     1
  0
STYLE
  5
15
330
14
100
AcDbSymbolTableRecord
100
AcDbTextStyleTableRecord
  2
STANDARD
 70
     0
 40
0.0
 41
1.0
 50
0.0
 71
     0
 42
4.5
  3
txt.shx
  4
bigfont.shx
  0
ENDTAB
  0
TABLE
  2
VIEW
  5
1A
330
0
100
AcDbSymbolTable
 70
     0
  0
ENDTAB
  0
TABLE
  2
UCS
  5
1B
330
0
100
AcDbSymbolTable
 70
     0
  0
ENDTAB
  0
TABLE
  2
APPID
  5
1E
330
0
100
AcDbSymbolTable
 70
     1
  0
APPID
  5
9
330
1E
100
AcDbSymbolTableRecord
100
AcDbRegAppTableRecord
  2
ACAD
 70
     0
  0
ENDTAB
  0
TABLE
  2
DIMSTYLE
  5
1F
330
0
100
AcDbSymbolTable
 70
     1
  0
DIMSTYLE
105
27
330
1F
100
AcDbSymbolTableRecord
100
AcDbDimStyleTableRecord
  2
STANDARD
 70
     0
  3

  4

  5

  6

  7

 40
1.0
 41
0.18
 42
0.0625
 43
0.38
 44
0.18
 45
0.0
 46
0.0
 47
0.0
 48
0.0
140
0.18
141
0.09
142
0.0
143
25.4
144
1.0
145
0.0
146
1.0
147
0.09
 71
     0
 72
     0
 73
     1
 74
     1
 75
     0
 76
     0
 77
     0
 78
     0
170
     0
171
     2
172
     0
173
     0
174
     0
175
     0
176
     0
177
     0
178
     0
270
     2
271
     4
272
     4
273
     2
274
     2
340
15
275
     0
280
     0
281
     0
282
     0
283
     1
284
     0
285
     0
286
     0
287
     3
288
     0
  0
ENDTAB
  0
TABLE
  2
BLOCK_RECORD
  5
1
330
0
100
AcDbSymbolTable
 70
     0
  0
BLOCK_RECORD
  5
2
102
{ACAD_XDICTIONARY
360
3
102
}
330
1
100
AcDbSymbolTableRecord
100
AcDbBlockTableRecord
  2
*MODEL_SPACE
  0
BLOCK_RECORD
  5
E
102
{ACAD_XDICTIONARY
360
F
102
}
330
1
100
AcDbSymbolTableRecord
100
AcDbBlockTableRecord
  2
*PAPER_SPACE
  0
ENDTAB
  0
ENDSEC
  0
SECTION
  2
BLOCKS
  0
BLOCK
  5
4
330
2
100
AcDbEntity
  8
0
100
AcDbBlockBegin
  2
*MODEL_SPACE
 70
     0
 10
0.0
 20
0.0
 30
0.0
  3
*MODEL_SPACE
  1

  0
ENDBLK
  5
B
330
2
100
AcDbEntity
  8
0
100
AcDbBlockEnd
  0
BLOCK
  5
10
330
E
100
AcDbEntity
 67
     1
  8
0
100
AcDbBlockBegin
  2
*PAPER_SPACE
 70
     0
 10
0.0
 20
0.0
 30
0.0
  3
*PAPER_SPACE
  1

  0
ENDBLK
  5
11
330
E
100
AcDbEntity
 67
     1
  8
0
100
AcDbBlockEnd
  0
ENDSEC
  0
SECTION
  2
ENTITIES
  0
LINE
  5
28
330
2
100
AcDbEntity
  8
L-TYUSIN
  6
CONTINUOUS
100
AcDbLine
 10
423.3590515222806
 20
203.1272259057665
 30
0.0
 11
379.6340515222818
 21
203.1272259057665
 31
0.0
  0
LINE
  5
29
330
2
100
AcDbEntity
  8
L-TYUSIN
  6
CONTINUOUS
100
AcDbLine
 10
423.3590515222806
 20
354.5969259057656
 30
0.0
 11
379.6340515222818
 21
354.5969259057656
 31
0.0
  0
LINE
  5
2A
330
2
100
AcDbEntity
  8
L-TYUSIN
100
AcDbLine
 10
101.1590515222807
 20
3.862075905766232
 30
0.0
 11
433.559051522281
 21
3.862075905766232
 31
0.0
  0
LINE
  5
2B
330
2
100
AcDbEntity
  8
L-TYUSIN
100
AcDbLine
 10
113.2157289553652
 20
278.8620759057661
 30
0.0
 11
420.8633328547103
 21
278.8620759057661
 31
0.0
  0
CIRCLE
  5
2C
330
2
100
AcDbEntity
  8
L-ZISSEN
100
AcDbCircle
 10
379.6340515222818
 20
278.8620759057661
 30
0.0
 40
3.25
  0
LINE
  5
2E
330
2
100
AcDbEntity
  8
L-TYUSIN
  6
CONTINUOUS
100
AcDbLine
 10
379.6340515222818
 20
258.8620759057661
 30
0.0
 11
379.6340515222818
 21
298.8620759057661
 31
0.0
  0
LINE
  5
2F
330
2
100
AcDbEntity
  8
L-ZISSEN
100
AcDbLine
 10
393.1090515222809
 20
293.8620759057661
 30
0.0
 11
393.1090515222809
 21
263.8620759057661
 31
0.0
  0
LINE
  5
30
330
2
100
AcDbEntity
  8
L-TYUSIN
  6
CONTINUOUS
100
AcDbLine
 10
155.0840515222798
 20
258.8620759057661
 30
0.0
 11
155.0840515222796
 21
298.8620759057661
 31
0.0
  0
CIRCLE
  5
31
330
2
100
AcDbEntity
  8
L-ZISSEN
100
AcDbCircle
 10
155.0840515222798
 20
278.8620759057661
 30
0.0
 40
3.25
  0
LINE
  5
32
330
2
100
AcDbEntity
  8
L-ZISSEN
100
AcDbLine
 10
141.6090515222809
 20
293.8620759057661
 30
0.0
 11
141.6090515222809
 21
263.8620759057661
 31
0.0
  0
LEADER
  5
33
330
2
100
AcDbEntity
  8
L-ZISSEN
100
AcDbLeader
  3
STANDARD
 73
     0
 74
     0
 40
5.599999999999998
 41
9.599999999999996
 76
     3
 10
174.3590515222788
 20
278.8620759057661
 30
0.0
 10
166.1583830840019
 20
305.9764690922486
 30
0.0
 10
163.8313377457764
 20
305.9764690922486
 30
0.0
211
-1.0
221
0.0
231
0.0
1001
ACAD
1000
DSTYLE
1002
{
1070
     5
1000

1070
    40
1040
2.0
1070
    41
1040
2.0
1070
    42
1040
2.0
1070
    44
1040
2.0
1070
    46
1040
1.0
1070
    73
1070
     0
1070
    74
1070
     0
1070
    77
1070
     1
1070
   140
1040
2.799999999999998
1070
   147
1040
1.0
1070
   172
1070
     1
1070
   174
1070
     1
1070
   271
1070
     1
1070
   287
1070
     5
1070
   342
1005
0
1002
}
1000
LEANOF
1010
0.0
1020
0.0
1030
0.0
1000
LEANOF
1010
0.0
1020
0.0
1030
0.0
  0
LEADER
  5
34
330
2
100
AcDbEntity
  8
L-ZISSEN
100
AcDbLeader
  3
STANDARD
 73
     0
 74
     0
 40
5.599999999999998
 41
9.599999999999996
 76
     3
 10
360.3590515222828
 20
278.8620759057661
 30
0.0
 10
368.5597199605596
 20
305.9764690922486
 30
0.0
 10
370.8867652987853
 20
305.9764690922486
 30
0.0
210
0.0
220
0.0
230
-1.0
1001
ACAD
1000
DSTYLE
1002
{
1070
     5
1000

1070
    40
1040
2.0
1070
    41
1040
2.0
1070
    42
1040
2.0
1070
    44
1040
2.0
1070
    46
1040
1.0
1070
    73
1070
     0
1070
    74
1070
     0
1070
    77
1070
     1
1070
   140
1040
2.799999999999998
1070
   147
1040
1.0
1070
   172
1070
     1
1070
   174
1070
     1
1070
   271
1070
     1
1070
   287
1070
     5
1070
   342
1005
0
1002
}
1000
LEANOF
1010
0.0
1020
0.0
1030
0.0
1000
LEANOF
1010
0.0
1020
0.0
1030
0.0
  0
LINE
  5
35
330
2
100
AcDbEntity
  8
L-ZISSEN
100
AcDbLine
 10
413.3590515222834
 20
288.3620759057661
 30
0.0
 11
413.3590515222831
 21
269.3620759057661
 31
0.0
  0
LINE
  5
36
330
2
100
AcDbEntity
  8
L-ZISSEN
100
AcDbLine
 10
408.6090515222831
 20
290.0620759057662
 30
0.0
 11
408.6090515222831
 21
267.6620759057663
 31
0.0
  0
LINE
  5
37
330
2
100
AcDbEntity
  8
L-ZISSEN
100
AcDbLine
 10
418.3590515222834
 20
288.3620759057661
 30
0.0
 11
418.3590515222836
 21
269.3620759057661
 31
0.0
  0
LINE
  5
38
330
2
100
AcDbEntity
  8
L-ZISSEN
100
AcDbLine
 10
355.1590515222808
 20
263.2620759057662
 30
0.0
 11
355.1590515222808
 21
294.4620759057659
 31
0.0
  0
LINE
  5
39
330
2
100
AcDbEntity
  8
L-ZISSEN
100
AcDbLine
 10
366.159051522283
 20
263.8620759057661
 30
0.0
 11
366.159051522283
 21
293.8620759057661
 31
0.0
  0
LINE
  5
3A
330
2
100
AcDbEntity
  8
L-ZISSEN
100
AcDbLine
 10
366.159051522283
 20
263.8620759057661
 30
0.0
 11
366.159051522283
 21
293.8620759057661
 31
0.0
  0
LINE
  5
3B
330
2
100
AcDbEntity
  8
L-TYUSIN
100
AcDbLine
 10
360.3590515222828
 20
273.7620759057662
 30
0.0
 11
360.3590515222828
 21
283.9620759057655
 31
0.0
  0
LINE
  5
3C
330
2
100
AcDbEntity
  8
L-ZISSEN
100
AcDbLine
 10
305.0590515222808
 20
261.8620759057661
 30
0.0
 11
305.0590515222808
 21
295.8620759057661
 31
0.0
  0
LINE
  5
3D
330
2
100
AcDbEntity
  8
L-ZISSEN
100
AcDbLine
 10
313.1590515222808
 20
294.4620759057659
 30
0.0
 11
313.1590515222808
 21
263.2620759057662
 31
0.0
  0
LINE
  5
3E
330
2
100
AcDbEntity
  8
L-ZISSEN
100
AcDbLine
 10
313.1590515222808
 20
262.8620759057656
 30
0.0
 11
313.1590515222808
 21
294.8620759057664
 31
0.0
  0
LINE
  5
3F
330
2
100
AcDbEntity
  8
L-ZISSEN
100
AcDbLine
 10
313.1590515222806
 20
252.8620759057663
 30
0.0
 11
313.159051522281
 21
304.8620759057661
 31
0.0
  0
LINE
  5
40
330
2
100
AcDbEntity
  8
L-ZISSEN
100
AcDbLine
 10
229.6590515222809
 20
295.8620759057661
 30
0.0
 11
229.6590515222809
 21
261.8620759057661
 31
0.0
  0
LINE
  5
41
330
2
100
AcDbEntity
  8
L-ZISSEN
100
AcDbLine
 10
168.5590515222785
 20
263.8620759057661
 30
0.0
 11
168.5590515222785
 21
293.8620759057661
 31
0.0
  0
LINE
  5
42
330
2
100
AcDbEntity
  8
L-ZISSEN
100
AcDbLine
 10
168.5590515222785
 20
263.8620759057661
 30
0.0
 11
168.5590515222785
 21
293.8620759057661
 31
0.0
  0
LINE
  5
43
330
2
100
AcDbEntity
  8
L-ZISSEN
100
AcDbLine
 10
179.5590515222809
 20
263.2620759057662
 30
0.0
 11
179.5590515222809
 21
294.4620759057659
 31
0.0
  0
LINE
  5
44
330
2
100
AcDbEntity
  8
L-ZISSEN
100
AcDbLine
 10
221.5590515222809
 20
252.8620759057661
 30
0.0
 11
221.5590515222809
 21
304.8620759057661
 31
0.0
  0
LINE
  5
45
330
2
100
AcDbEntity
  8
L-ZISSEN
100
AcDbLine
 10
121.3590515222781
 20
288.3620759057661
 30
0.0
 11
121.3590515222785
 21
269.3620759057661
 31
0.0
  0
LINE
  5
46
330
2
100
AcDbEntity
  8
L-ZISSEN
100
AcDbLine
 10
126.1090515222786
 20
290.0620759057662
 30
0.0
 11
126.1090515222786
 21
267.6620759057663
 31
0.0
  0
LINE
  5
47
330
2
100
AcDbEntity
  8
L-ZISSEN
100
AcDbLine
 10
116.3590515222781
 20
288.3620759057661
 30
0.0
 11
116.3590515222781
 21
269.3620759057661
 31
0.0
  0
LINE
  5
48
330
2
100
AcDbEntity
  8
L-TYUSIN
100
AcDbLine
 10
267.3590515222808
 20
309.8620759057661
 30
0.0
 11
267.3590515222808
 21
247.8620759057661
 31
0.0
  0
LINE
  5
49
330
2
100
AcDbEntity
  8
L-TYUSIN
100
AcDbLine
 10
131.0590515222809
 20
153.8620759057663
 30
0.0
 11
403.6590515222808
 21
153.8620759057663
 31
0.0
  0
LINE
  5
4A
330
2
100
AcDbEntity
  8
L-ZISSEN
100
AcDbLine
 10
141.6090515222809
 20
263.8620759057661
 30
0.0
 11
168.5590515222785
 21
263.8620759057662
 31
0.0
  0
LINE
  5
4B
330
2
100
AcDbEntity
  8
L-ZISSEN
100
AcDbLine
 10
141.6090515222809
 20
263.8620759057662
 30
0.0
 11
168.5590515222785
 21
263.8620759057661
 31
0.0
  0
LINE
  5
4E
330
2
100
AcDbEntity
  8
L-ZISSEN
100
AcDbLine
 10
140.3590515222786
 20
18.86207590576622
 30
0.0
 11
168.5590515222785
 21
18.86207590576629
 31
0.0
  0
LINE
  5
4F
330
2
100
AcDbEntity
  8
L-ZISSEN
100
AcDbLine
 10
140.3590515222786
 20
-11.13792409423375
 30
0.0
 11
168.5590515222785
 21
-11.13792409423375
 31
0.0
  0
LINE
  5
50
330
2
100
AcDbEntity
  8
L-ZISSEN
100
AcDbLine
 10
168.5590515222785
 20
15.26207590576632
 30
0.0
 11
136.3590515222808
 21
15.26207590576632
 31
0.0
  0
LINE
  5
51
330
2
100
AcDbEntity
  8
L-ZISSEN
100
AcDbLine
 10
168.5590515222785
 20
-7.537924094233857
 30
0.0
 11
136.3590515222808
 21
-7.537924094233857
 31
0.0
  0
LINE
  5
52
330
2
100
AcDbEntity
  8
L-ZISSEN
100
AcDbLine
 10
140.3590515222786
 20
-11.13792409423375
 30
0.0
 11
168.5590515222785
 21
-11.13792409423375
 31
0.0
  0
LINE
  5
53
330
2
100
AcDbEntity
  8
L-ZISSEN
100
AcDbLine
 10
140.3590515222786
 20
18.86207590576622
 30
0.0
 11
168.5590515222785
 21
18.86207590576622
 31
0.0
  0
LINE
  5
54
330
2
100
AcDbEntity
  8
L-ZISSEN
100
AcDbLine
 10
168.5590515222808
 20
178.3620759057664
 30
0.0
 11
140.3590515222809
 21
178.3620759057664
 31
0.0
  0
LINE
  5
55
330
2
100
AcDbEntity
  8
L-ZISSEN
100
AcDbLine
 10
168.5590515222808
 20
182.8620759057664
 30
0.0
 11
140.3590515222809
 21
182.8620759057664
 31
0.0
  0
LINE
  5
56
330
2
100
AcDbEntity
  8
L-TYUSIN
100
AcDbLine
 10
121.859051522281
 20
278.8620759057661
 30
0.0
 11
187.0590515222809
 21
278.8620759057661
 31
0.0
  0
LINE
  5
57
330
2
100
AcDbEntity
  8
L-ZISSEN
100
AcDbLine
 10
141.6090515222809
 20
214.3620759057668
 30
0.0
 11
167.6090515222814
 21
214.3620759057668
 31
0.0
  0
LINE
  5
58
330
2
100
AcDbEntity
  8
L-ZISSEN
100
AcDbLine
 10
136.3590515222809
 20
138.1620759057663
 30
0.0
 11
179.5590515222809
 21
138.1620759057663
 31
0.0
  0
LINE
  5
59
330
2
100
AcDbEntity
  8
L-ZISSEN
100
AcDbLine
 10
136.3590515222809
 20
169.5620759057663
 30
0.0
 11
179.5590515222809
 21
169.5620759057663
 31
0.0
  0
LINE
  5
5A
330
2
100
AcDbEntity
  8
L-ZISSEN
100
AcDbLine
 10
140.3590515222809
 20
173.3620759057664
 30
0.0
 11
168.5590515222808
 21
173.3620759057656
 31
0.0
  0
LINE
  5
5B
330
2
100
AcDbEntity
  8
L-ZISSEN
100
AcDbLine
 10
140.3590515222786
 20
18.86207590576622
 30
0.0
 11
140.3590515222786
 21
-11.13792409423375
 31
0.0
  0
LINE
  5
5C
330
2
100
AcDbEntity
  8
L-ZISSEN
100
AcDbLine
 10
121.3590515222781
 20
13.01207590576632
 30
0.0
 11
126.1090515222786
 21
13.01207590576632
 31
0.0
  0
LINE
  5
5D
330
2
100
AcDbEntity
  8
L-ZISSEN
100
AcDbLine
 10
121.3590515222785
 20
-5.287924094233858
 30
0.0
 11
126.1090515222786
 21
-5.287924094233858
 31
0.0
  0
LINE
  5
5E
330
2
100
AcDbEntity
  8
L-ZISSEN
100
AcDbLine
 10
116.3590515222781
 20
13.36207590576623
 30
0.0
 11
116.3590515222781
 21
-5.637924094233768
 31
0.0
  0
LINE
  5
5F
330
2
100
AcDbEntity
  8
L-ZISSEN
100
AcDbLine
 10
121.3590515222781
 20
13.36207590576623
 30
0.0
 11
121.3590515222785
 21
-5.637924094233768
 31
0.0
  0
LINE
  5
60
330
2
100
AcDbEntity
  8
L-ZISSEN
100
AcDbLine
 10
116.3590515222781
 20
-5.637924094233768
 30
0.0
 11
121.3590515222785
 21
-5.637924094233768
 31
0.0
  0
LINE
  5
61
330
2
100
AcDbEntity
  8
L-ZISSEN
100
AcDbLine
 10
116.3590515222781
 20
13.36207590576623
 30
0.0
 11
121.3590515222785
 21
13.36207590576623
 31
0.0
  0
LINE
  5
62
330
2
100
AcDbEntity
  8
L-ZISSEN
100
AcDbLine
 10
126.1090515222786
 20
15.06207590576649
 30
0.0
 11
126.1090515222786
 21
-7.337924094233584
 31
0.0
  0
LINE
  5
63
330
2
100
AcDbEntity
  8
L-ZISSEN
100
AcDbLine
 10
136.3590515222807
 20
15.26207590576632
 30
0.0
 11
136.3590515222808
 21
-7.537924094233857
 31
0.0
  0
LINE
  5
64
330
2
100
AcDbEntity
  8
L-ZISSEN
100
AcDbLine
 10
138.3590515222809
 20
15.26207590576632
 30
0.0
 11
138.3590515222809
 21
-7.537924094233857
 31
0.0
  0
LINE
  5
65
330
2
100
AcDbEntity
  8
L-ZISSEN
100
AcDbLine
 10
126.1090515222786
 20
-7.337924094233584
 30
0.0
 11
136.3590515222808
 21
-7.337924094233584
 31
0.0
  0
LINE
  5
66
330
2
100
AcDbEntity
  8
L-ZISSEN
100
AcDbLine
 10
126.1090515222786
 20
15.06207590576649
 30
0.0
 11
136.3590515222808
 21
15.06207590576649
 31
0.0
  0
LINE
  5
67
330
2
100
AcDbEntity
  8
L-TYUSIN
  6
CONTINUOUS
100
AcDbLine
 10
155.0840515222796
 20
219.3620759057667
 30
0.0
 11
155.0840515222796
 21
164.38322438687
 31
0.0
  0
LINE
  5
68
330
2
100
AcDbEntity
  8
L-ZISSEN
100
AcDbLine
 10
141.6090515222809
 20
214.3620759057668
 30
0.0
 11
141.6090515222809
 21
183.1620759057664
 31
0.0
  0
LINE
  5
69
330
2
100
AcDbEntity
  8
L-ZISSEN
100
AcDbLine
 10
142.8590515222809
 20
138.1620759057663
 30
0.0
 11
142.8590515222809
 21
173.3620759057664
 31
0.0
  0
LINE
  5
6A
330
2
100
AcDbEntity
  8
L-ZISSEN
100
AcDbLine
 10
138.3590515222809
 20
138.1620759057663
 30
0.0
 11
138.3590515222809
 21
169.5620759057663
 31
0.0
  0
LINE
  5
6B
330
2
100
AcDbEntity
  8
L-ZISSEN
100
AcDbLine
 10
136.3590515222809
 20
138.1620759057663
 30
0.0
 11
136.3590515222809
 21
169.5620759057663
 31
0.0
  0
LINE
  5
6C
330
2
100
AcDbEntity
  8
L-ZISSEN
100
AcDbLine
 10
136.3590515222809
 20
140.1120759057659
 30
0.0
 11
138.3590515222809
 21
140.112075905766
 31
0.0
  0
LINE
  5
6D
330
2
100
AcDbEntity
  8
L-ZISSEN
100
AcDbLine
 10
136.3590515222809
 20
145.6120759057661
 30
0.0
 11
138.3590515222809
 21
145.6120759057661
 31
0.0
  0
LINE
  5
6E
330
2
100
AcDbEntity
  8
L-ZISSEN
100
AcDbLine
 10
136.3590515222809
 20
146.362075905766
 30
0.0
 11
138.3590515222809
 21
146.362075905766
 31
0.0
  0
LINE
  5
6F
330
2
100
AcDbEntity
  8
L-ZISSEN
100
AcDbLine
 10
140.3590515222809
 20
173.3620759057664
 30
0.0
 11
140.3590515222809
 21
182.8620759057664
 31
0.0
  0
LINE
  5
70
330
2
100
AcDbEntity
  8
L-TYUSIN
  6
CONTINUOUS
100
AcDbLine
 10
111.3590515222809
 20
203.1272259057665
 30
0.0
 11
155.0840515222796
 21
203.1272259057665
 31
0.0
  0
LINE
  5
71
330
2
100
AcDbEntity
  8
L-ZISSEN
100
AcDbLine
 10
121.3590515222809
 20
212.3120759057665
 30
0.0
 11
126.1090515222814
 21
212.3120759057665
 31
0.0
  0
LINE
  5
72
330
2
100
AcDbEntity
  8
L-ZISSEN
100
AcDbLine
 10
121.3590515222809
 20
193.7120759057669
 30
0.0
 11
126.1090515222814
 21
193.7120759057669
 31
0.0
  0
LINE
  5
73
330
2
100
AcDbEntity
  8
L-ZISSEN
100
AcDbLine
 10
116.3590515222809
 20
214.3620310203696
 30
0.0
 11
116.3590515222809
 21
191.892420791164
 31
0.0
  0
LINE
  5
74
330
2
100
AcDbEntity
  8
L-ZISSEN
100
AcDbLine
 10
121.3590515222809
 20
214.3620310203695
 30
0.0
 11
121.3590515222809
 21
191.892420791164
 31
0.0
  0
LINE
  5
75
330
2
100
AcDbEntity
  8
L-ZISSEN
100
AcDbLine
 10
116.3590515222809
 20
191.892420791164
 30
0.0
 11
121.3590515222809
 21
191.892420791164
 31
0.0
  0
LINE
  5
76
330
2
100
AcDbEntity
  8
L-ZISSEN
100
AcDbLine
 10
116.3590515222809
 20
214.3620310203696
 30
0.0
 11
121.3590515222809
 21
214.3620310203696
 31
0.0
  0
LINE
  5
77
330
2
100
AcDbEntity
  8
L-ZISSEN
100
AcDbLine
 10
126.1090515222814
 20
214.3620759057668
 30
0.0
 11
126.1090515222814
 21
191.9620759057666
 31
0.0
  0
LINE
  5
78
330
2
100
AcDbEntity
  8
L-ZISSEN
100
AcDbLine
 10
126.1090515222814
 20
191.9620759057666
 30
0.0
 11
141.6090515222809
 21
191.9620759057666
 31
0.0
  0
LINE
  5
79
330
2
100
AcDbEntity
  8
L-ZISSEN
100
AcDbLine
 10
126.1090515222814
 20
214.3620759057668
 30
0.0
 11
141.6090515222809
 21
214.3620759057668
 31
0.0
  0
LINE
  5
7A
330
2
100
AcDbEntity
  8
L-ZISSEN
100
AcDbLine
 10
121.3590515222785
 20
269.7120759057659
 30
0.0
 11
126.1090515222786
 21
269.7120759057659
 31
0.0
  0
LINE
  5
7B
330
2
100
AcDbEntity
  8
L-ZISSEN
100
AcDbLine
 10
116.3590515222781
 20
269.3620759057661
 30
0.0
 11
121.3590515222785
 21
269.3620759057661
 31
0.0
  0
LINE
  5
7C
330
2
100
AcDbEntity
  8
L-ZISSEN
100
AcDbLine
 10
126.1090515222786
 20
267.6620759057663
 30
0.0
 11
141.6090515222809
 21
267.6620759057663
 31
0.0
  0
LEADER
  5
7D
330
2
100
AcDbEntity
  8
L-ZISSEN
100
AcDbLeader
  3
STANDARD
 76
     3
 10
267.3590515222808
 20
107.6395759057662
 30
0.0
 10
242.4230101249625
 20
63.793231953121
 30
0.0
 10
233.5789880279941
 20
63.793231953121
 30
0.0
1001
ACAD
1000
DSTYLE
1002
{
1070
     5
1000

1070
    40
1040
2.0
1070
    41
1040
2.0
1070
    42
1040
2.0
1070
    44
1040
2.0
1070
    46
1040
1.0
1070
    73
1070
     0
1070
    74
1070
     0
1070
    77
1070
     1
1070
   140
1040
2.799999999999998
1070
   147
1040
1.0
1070
   172
1070
     1
1070
   174
1070
     1
1070
   271
1070
     1
1070
   287
1070
     5
1070
   342
1005
0
1002
}
1000
LEANOF
1010
0.0
1020
0.0
1030
0.0
1000
LEANOF
1010
0.0
1020
0.0
1030
0.0
  0
LINE
  5
7E
330
2
100
AcDbEntity
  8
L-TYUSIN
100
AcDbLine
 10
322.3590515222809
 20
86.36207590576622
 30
0.0
 11
322.3590515222809
 21
105.3620759057662
 31
0.0
  0
LINE
  5
7F
330
2
100
AcDbEntity
  8
L-TYUSIN
100
AcDbLine
 10
212.3590515222808
 20
86.36207590576622
 30
0.0
 11
212.3590515222808
 21
105.3620759057662
 31
0.0
  0
LINE
  5
80
330
2
100
AcDbEntity
  8
L-ZISSEN
100
AcDbLine
 10
230.1628990995739
 20
-22.13792409423376
 30
0.0
 11
304.5552039449876
 21
-22.13792409423376
 31
0.0
  0
LINE
  5
81
330
2
100
AcDbEntity
  8
L-ZISSEN
100
AcDbLine
 10
230.1628990995739
 20
29.86207590576622
 30
0.0
 11
304.5552039449878
 21
29.86207590576622
 31
0.0
  0
LINE
  5
82
330
2
100
AcDbEntity
  8
L-ZISSEN
100
AcDbLine
 10
179.5590515222809
 20
19.4620759057658
 30
0.0
 11
179.5590515222809
 21
-11.73792409423326
 31
0.0
  0
LINE
  5
83
330
2
100
AcDbEntity
  8
L-ZISSEN
100
AcDbLine
 10
168.5590515222785
 20
-11.13792409423375
 30
0.0
 11
168.5590515222785
 21
18.86207590576622
 31
0.0
  0
LINE
  5
84
330
2
100
AcDbEntity
  8
L-ZISSEN
100
AcDbLine
 10
168.5590515222785
 20
-11.13792409423375
 30
0.0
 11
168.5590515222785
 21
18.86207590576622
 31
0.0
  0
LINE
  5
86
330
2
100
AcDbEntity
  8
L-TYUSIN
100
AcDbLine
 10
212.3590515222808
 20
-30.13792409423371
 30
0.0
 11
212.3590515222808
 21
-10.13792409423393
 31
0.0
  0
LINE
  5
87
330
2
100
AcDbEntity
  8
L-ZISSEN
100
AcDbLine
 10
230.1628990995739
 20
29.86207590576622
 30
0.0
 11
230.1628990995739
 21
-22.13792409423376
 31
0.0
  0
LINE
  5
88
330
2
100
AcDbEntity
  8
L-ZISSEN
100
AcDbLine
 10
235.3590515222805
 20
29.86207590576622
 30
0.0
 11
235.3590515222805
 21
-22.13792409423376
 31
0.0
  0
LINE
  5
89
330
2
100
AcDbEntity
  8
L-TYUSIN
100
AcDbLine
 10
267.3590515222808
 20
-25.63792409423388
 30
0.0
 11
267.3590515222808
 21
34.86207590576629
 31
0.0
  0
LINE
  5
8A
330
2
100
AcDbEntity
  8
L-ZISSEN
100
AcDbLine
 10
221.3590515222807
 20
-6.281517633678504
 30
0.0
 11
208.609051522279
 21
-13.64273356584749
 31
0.0
  0
LINE
  5
8B
330
2
100
AcDbEntity
  8
L-ZISSEN
100
AcDbLine
 10
230.1628990995739
 20
-22.13792409423376
 30
0.0
 11
212.3590515222808
 21
-27.63792409423416
 31
0.0
  0
LINE
  5
8C
330
2
100
AcDbEntity
  8
L-ZISSEN
100
AcDbLine
 10
211.9082783058534
 20
-11.73792409423326
 30
0.0
 11
179.5590515222809
 21
-11.73792409423326
 31
0.0
  0
LINE
  5
8F
330
2
100
AcDbEntity
  8
L-TYUSIN
100
AcDbLine
 10
222.3590515222816
 20
-20.13792409423382
 30
0.0
 11
202.3590515222816
 21
-20.13792409423377
 31
0.0
  0
ARC
  5
90
330
2
100
AcDbEntity
  8
L-ZISSEN
100
AcDbCircle
 10
212.3590515222808
 20
-20.13792409423382
 30
0.0
 40
7.5
100
AcDbArc
 50
119.9999999999999
 51
270.0
  0
CIRCLE
  5
91
330
2
100
AcDbEntity
  8
L-ZISSEN
100
AcDbCircle
 10
212.3590515222808
 20
-20.13792409423382
 30
0.0
 40
3.5
  0
LINE
  5
92
330
2
100
AcDbEntity
  8
L-TYUSIN
100
AcDbLine
 10
251.3590515222808
 20
-17.13792409423376
 30
0.0
 11
251.3590515222808
 21
-27.13792409423376
 31
0.0
  0
LINE
  5
93
330
2
100
AcDbEntity
  8
L-TYUSIN
100
AcDbLine
 10
283.3590515222809
 20
-17.13792409423376
 30
0.0
 11
283.3590515222809
 21
-27.13792409423376
 31
0.0
  0
LINE
  5
94
330
2
100
AcDbEntity
  8
L-ZISSEN
100
AcDbLine
 10
230.1628990995739
 20
29.86207590576622
 30
0.0
 11
212.3590515222808
 21
35.36207590576634
 31
0.0
  0
TEXT
  5
95
330
2
100
AcDbEntity
  8
L-ZISSEN
100
AcDbText
 10
203.9779800327476
 20
46.96378712957943
 30
0.0
 40
4.5
  1
Rc3/8
100
AcDbText
  0
TEXT
  5
96
330
2
100
AcDbEntity
  8
L-ZISSEN
100
AcDbText
 10
203.9779800327476
 20
54.42390968899356
 30
0.0
 40
4.5
  1
Rc1/4
100
AcDbText
  0
TEXT
  5
97
330
2
100
AcDbEntity
  8
L-ZISSEN
100
AcDbText
 10
203.9779800327476
 20
61.88403317433392
 30
0.0
 40
4.5
  1
"1"PORT
100
AcDbText
  0
LINE
  5
98
330
2
100
AcDbEntity
  8
L-ZISSEN
100
AcDbLine
 10
211.9082783058534
 20
19.4620759057658
 30
0.0
 11
179.5590515222809
 21
19.4620759057658
 31
0.0
  0
LINE
  5
99
330
2
100
AcDbEntity
  8
L-ZISSEN
100
AcDbLine
 10
168.5590515222785
 20
-7.537924094233857
 30
0.0
 11
179.5590515222809
 21
-7.537924094233857
 31
0.0
  0
LINE
  5
9B
330
2
100
AcDbEntity
  8
L-ZISSEN
100
AcDbLine
 10
168.5590515222785
 20
15.26207590576632
 30
0.0
 11
179.5590515222809
 21
15.26207590576632
 31
0.0
  0
LINE
  5
9C
330
2
100
AcDbEntity
  8
L-ZISSEN
100
AcDbLine
 10
221.3590515222807
 20
14.00566944521136
 30
0.0
 11
221.3590515222807
 21
-6.281517633678504
 31
0.0
  0
LINE
  5
9D
330
2
100
AcDbEntity
  8
L-TYUSIN
100
AcDbLine
 10
222.3590515222816
 20
27.86207590576628
 30
0.0
 11
202.3590515222816
 21
27.86207590576623
 31
0.0
  0
ARC
  5
9E
330
2
100
AcDbEntity
  8
L-ZISSEN
100
AcDbCircle
 10
212.3590515222808
 20
27.86207590576628
 30
0.0
 40
7.5
100
AcDbArc
 50
90.0
 51
239.9999999999999
  0
LINE
  5
9F
330
2
100
AcDbEntity
  8
L-TYUSIN
100
AcDbLine
 10
212.3590515222808
 20
37.86207590576617
 30
0.0
 11
212.3590515222808
 21
17.8620759057664
 31
0.0
  0
CIRCLE
  5
A0
330
2
100
AcDbEntity
  8
L-ZISSEN
100
AcDbCircle
 10
212.3590515222808
 20
27.86207590576628
 30
0.0
 40
3.5
  0
LINE
  5
A1
330
2
100
AcDbEntity
  8
L-ZISSEN
100
AcDbLine
 10
221.3590515222807
 20
14.00566944521136
 30
0.0
 11
208.609051522279
 21
21.36688537737994
 31
0.0
  0
LINE
  5
A2
330
2
100
AcDbEntity
  8
L-TYUSIN
100
AcDbLine
 10
235.3590515222808
 20
34.86207590576623
 30
0.0
 11
235.3590515222808
 21
24.86207590576622
 31
0.0
  0
LINE
  5
A3
330
2
100
AcDbEntity
  8
L-ZISSEN
100
AcDbLine
 10
394.359051522283
 20
18.86207590576622
 30
0.0
 11
394.359051522283
 21
-11.13792409423375
 31
0.0
  0
LINE
  5
A4
330
2
100
AcDbEntity
  8
L-ZISSEN
100
AcDbLine
 10
366.159051522283
 20
-11.13792409423375
 30
0.0
 11
366.159051522283
 21
18.86207590576622
 31
0.0
  0
LINE
  5
A5
330
2
100
AcDbEntity
  8
L-ZISSEN
100
AcDbLine
 10
366.159051522283
 20
-11.13792409423375
 30
0.0
 11
366.159051522283
 21
18.86207590576622
 31
0.0
  0
LINE
  5
A6
330
2
100
AcDbEntity
  8
L-ZISSEN
100
AcDbLine
 10
355.1590515222808
 20
19.4620759057658
 30
0.0
 11
355.1590515222808
 21
-11.73792409423326
 31
0.0
  0
LINE
  5
A7
330
2
100
AcDbEntity
  8
L-ZISSEN
100
AcDbLine
 10
347.1460023936771
 20
2.023405645494277
 30
0.0
 11
357.0590515222808
 21
-21.13792409423376
 31
0.0
  0
LINE
  5
A8
330
2
100
AcDbEntity
  8
L-ZISSEN
100
AcDbLine
 10
313.3590515222808
 20
-6.281517633678504
 30
0.0
 11
326.1090515222826
 21
-13.64273356584749
 31
0.0
  0
LINE
  5
A9
330
2
100
AcDbEntity
  8
L-TYUSIN
100
AcDbLine
 10
322.3590515222809
 20
-30.13792409423371
 30
0.0
 11
322.3590515222809
 21
-10.13792409423393
 31
0.0
  0
LINE
  5
AA
330
2
100
AcDbEntity
  8
L-ZISSEN
100
AcDbLine
 10
304.5552039449878
 20
29.86207590576622
 30
0.0
 11
304.5552039449878
 21
-22.13792409423376
 31
0.0
  0
LINE
  5
AB
330
2
100
AcDbEntity
  8
L-ZISSEN
100
AcDbLine
 10
299.3590515222811
 20
29.86207590576622
 30
0.0
 11
299.3590515222811
 21
-22.13792409423376
 31
0.0
  0
LINE
  5
AC
330
2
100
AcDbEntity
  8
L-ZISSEN
100
AcDbLine
 10
322.8098247387086
 20
-11.73792409423326
 30
0.0
 11
355.1590515222808
 21
-11.73792409423326
 31
0.0
  0
LINE
  5
AD
330
2
100
AcDbEntity
  8
L-TYUSIN
100
AcDbLine
 10
312.3590515222801
 20
-20.13792409423382
 30
0.0
 11
332.3590515222802
 21
-20.13792409423377
 31
0.0
  0
CIRCLE
  5
AE
330
2
100
AcDbEntity
  8
L-ZISSEN
100
AcDbCircle
 10
322.3590515222809
 20
-20.13792409423382
 30
0.0
 40
3.5
  0
LINE
  5
AF
330
2
100
AcDbEntity
  8
L-ZISSEN
100
AcDbLine
 10
304.5552039449878
 20
-22.13792409423376
 30
0.0
 11
322.3590515222809
 21
-27.63792409423416
 31
0.0
  0
ARC
  5
B0
330
2
100
AcDbEntity
  8
L-ZISSEN
100
AcDbCircle
 10
322.3590515222809
 20
-20.13792409423382
 30
0.0
 40
7.5
100
AcDbArc
 50
270.0
 51
60.00000000000006
  0
LINE
  5
B1
330
2
100
AcDbEntity
  8
L-ZISSEN
100
AcDbLine
 10
394.359051522283
 20
-11.13792409423375
 30
0.0
 11
366.159051522283
 21
-11.13792409423375
 31
0.0
  0
LINE
  5
B2
330
2
100
AcDbEntity
  8
L-ZISSEN
100
AcDbLine
 10
394.359051522283
 20
-11.13792409423375
 30
0.0
 11
366.159051522283
 21
-11.13792409423375
 31
0.0
  0
TEXT
  5
B3
330
2
100
AcDbEntity
  8
L-ZISSEN
100
AcDbText
 10
361.0590515222808
 20
-23.38792409423376
 30
0.0
 40
4.5
  1
P.P
100
AcDbText
  0
LINE
  5
B4
330
2
100
AcDbEntity
  8
L-ZISSEN
100
AcDbLine
 10
357.0590515222808
 20
-21.13792409423376
 30
0.0
 11
359.0590515222808
 21
-21.13792409423376
 31
0.0
  0
LINE
  5
B5
330
2
100
AcDbEntity
  8
L-ZISSEN
100
AcDbLine
 10
322.8098247387082
 20
19.4620759057658
 30
0.0
 11
355.1590515222808
 21
19.4620759057658
 31
0.0
  0
LINE
  5
B6
330
2
100
AcDbEntity
  8
L-TYUSIN
100
AcDbLine
 10
312.3590515222801
 20
27.86207590576628
 30
0.0
 11
332.3590515222802
 21
27.86207590576623
 31
0.0
  0
LINE
  5
B7
330
2
100
AcDbEntity
  8
L-ZISSEN
100
AcDbLine
 10
313.3590515222808
 20
14.00566944521136
 30
0.0
 11
326.1090515222826
 21
21.36688537737994
 31
0.0
  0
CIRCLE
  5
B8
330
2
100
AcDbEntity
  8
L-ZISSEN
100
AcDbCircle
 10
322.3590515222809
 20
27.86207590576628
 30
0.0
 40
3.5
  0
LINE
  5
B9
330
2
100
AcDbEntity
  8
L-ZISSEN
100
AcDbLine
 10
304.5552039449878
 20
29.86207590576622
 30
0.0
 11
322.3590515222809
 21
35.36207590576634
 31
0.0
  0
LINE
  5
BA
330
2
100
AcDbEntity
  8
L-ZISSEN
100
AcDbLine
 10
313.3590515222808
 20
14.00566944521136
 30
0.0
 11
313.3590515222808
 21
-6.281517633678504
 31
0.0
  0
LINE
  5
BB
330
2
100
AcDbEntity
  8
L-TYUSIN
100
AcDbLine
 10
299.3590515222809
 20
34.86207590576623
 30
0.0
 11
299.3590515222809
 21
24.86207590576622
 31
0.0
  0
SOLID
  5
BC
330
2
100
AcDbEntity
  8
L-ZISSEN
100
AcDbTrace
 10
346.8395573502986
 20
1.892247166928228
 30
0.0
 11
347.4524474370558
 21
2.154564124060356
 31
0.0
 12
346.3590515222808
 22
3.862075905766232
 32
0.0
 13
346.3590515222808
 23
3.862075905766232
 33
0.0
  0
ARC
  5
BD
330
2
100
AcDbEntity
  8
L-ZISSEN
100
AcDbCircle
 10
322.3590515222809
 20
27.86207590576628
 30
0.0
 40
7.5
100
AcDbArc
 50
299.9999999999999
 51
90.0
  0
LINE
  5
BE
330
2
100
AcDbEntity
  8
L-TYUSIN
100
AcDbLine
 10
322.3590515222809
 20
37.86207590576617
 30
0.0
 11
322.3590515222809
 21
17.8620759057664
 31
0.0
  0
LINE
  5
BF
330
2
100
AcDbEntity
  8
L-ZISSEN
100
AcDbLine
 10
366.159051522283
 20
-7.537924094233857
 30
0.0
 11
398.3590515222808
 21
-7.537924094233857
 31
0.0
  0
LINE
  5
C0
330
2
100
AcDbEntity
  8
L-ZISSEN
100
AcDbLine
 10
366.159051522283
 20
15.26207590576632
 30
0.0
 11
398.3590515222808
 21
15.26207590576632
 31
0.0
  0
LINE
  5
C1
330
2
100
AcDbEntity
  8
L-ZISSEN
100
AcDbLine
 10
394.359051522283
 20
18.86207590576622
 30
0.0
 11
366.159051522283
 21
18.86207590576622
 31
0.0
  0
LINE
  5
C2
330
2
100
AcDbEntity
  8
L-ZISSEN
100
AcDbLine
 10
394.359051522283
 20
18.86207590576622
 30
0.0
 11
366.159051522283
 21
18.86207590576629
 31
0.0
  0
LINE
  5
C3
330
2
100
AcDbEntity
  8
L-ZISSEN
100
AcDbLine
 10
366.159051522283
 20
-7.537924094233857
 30
0.0
 11
355.1590515222808
 21
-7.537924094233857
 31
0.0
  0
LINE
  5
C4
330
2
100
AcDbEntity
  8
L-ZISSEN
100
AcDbLine
 10
366.159051522283
 20
15.26207590576632
 30
0.0
 11
355.1590515222808
 21
15.26207590576632
 31
0.0
  0
LINE
  5
C5
330
2
100
AcDbEntity
  8
L-ZISSEN
100
AcDbLine
 10
396.3590515222808
 20
15.26207590576632
 30
0.0
 11
396.3590515222808
 21
-7.537924094233857
 31
0.0
  0
LINE
  5
C6
330
2
100
AcDbEntity
  8
L-ZISSEN
100
AcDbLine
 10
398.359051522281
 20
15.26207590576632
 30
0.0
 11
398.3590515222808
 21
-7.537924094233857
 31
0.0
  0
LINE
  5
C7
330
2
100
AcDbEntity
  8
L-ZISSEN
100
AcDbLine
 10
408.6090515222831
 20
15.06207590576649
 30
0.0
 11
408.6090515222831
 21
-7.337924094233584
 31
0.0
  0
LINE
  5
C8
330
2
100
AcDbEntity
  8
L-ZISSEN
100
AcDbLine
 10
408.6090515222831
 20
-7.337924094233584
 30
0.0
 11
398.3590515222808
 21
-7.337924094233584
 31
0.0
  0
LINE
  5
C9
330
2
100
AcDbEntity
  8
L-ZISSEN
100
AcDbLine
 10
413.3590515222834
 20
13.36207590576623
 30
0.0
 11
413.3590515222831
 21
-5.637924094233768
 31
0.0
  0
LINE
  5
CA
330
2
100
AcDbEntity
  8
L-ZISSEN
100
AcDbLine
 10
418.3590515222834
 20
13.36207590576623
 30
0.0
 11
418.3590515222836
 21
-5.637924094233768
 31
0.0
  0
LINE
  5
CB
330
2
100
AcDbEntity
  8
L-ZISSEN
100
AcDbLine
 10
413.3590515222831
 20
-5.287924094233858
 30
0.0
 11
408.6090515222831
 21
-5.287924094233858
 31
0.0
  0
LINE
  5
CC
330
2
100
AcDbEntity
  8
L-ZISSEN
100
AcDbLine
 10
418.3590515222836
 20
-5.637924094233768
 30
0.0
 11
413.3590515222831
 21
-5.637924094233768
 31
0.0
  0
LINE
  5
CD
330
2
100
AcDbEntity
  8
L-ZISSEN
100
AcDbLine
 10
413.3590515222834
 20
13.01207590576632
 30
0.0
 11
408.6090515222831
 21
13.01207590576632
 31
0.0
  0
LINE
  5
CE
330
2
100
AcDbEntity
  8
L-ZISSEN
100
AcDbLine
 10
418.3590515222834
 20
13.36207590576623
 30
0.0
 11
413.3590515222831
 21
13.36207590576623
 31
0.0
  0
LINE
  5
CF
330
2
100
AcDbEntity
  8
L-ZISSEN
100
AcDbLine
 10
408.6090515222831
 20
15.06207590576649
 30
0.0
 11
398.3590515222808
 21
15.06207590576649
 31
0.0
  0
LINE
  5
D0
330
2
100
AcDbEntity
  8
L-ZISSEN
100
AcDbLine
 10
305.0590515222807
 20
262.8620759057656
 30
0.0
 11
288.8590515222808
 21
262.8620759057656
 31
0.0
  0
LINE
  5
D1
330
2
100
AcDbEntity
  8
L-ZISSEN
100
AcDbLine
 10
221.5590515222809
 20
252.8620759057661
 30
0.0
 11
313.1590515222806
 21
252.8620759057663
 31
0.0
  0
LINE
  5
D2
330
2
100
AcDbEntity
  8
L-ZISSEN
100
AcDbLine
 10
313.1590515222808
 20
135.8620759057661
 30
0.0
 11
288.8590515222808
 21
135.8620759057661
 31
0.0
  0
LINE
  5
D3
330
2
100
AcDbEntity
  8
L-ZISSEN
100
AcDbLine
 10
305.0590515222807
 20
167.8620759057661
 30
0.0
 11
229.6590515222809
 21
167.8620759057661
 31
0.0
  0
LINE
  5
D4
330
2
100
AcDbEntity
  8
L-ZISSEN
100
AcDbLine
 10
221.3590515222807
 20
126.8620759057662
 30
0.0
 11
313.3590515222808
 21
126.8620759057662
 31
0.0
  0
LINE
  5
D5
330
2
100
AcDbEntity
  8
L-ZISSEN
100
AcDbLine
 10
179.5590515222811
 20
127.8620759057661
 30
0.0
 11
355.1590515222808
 21
127.8620759057661
 31
0.0
  0
LINE
  5
D6
330
2
100
AcDbEntity
  8
L-ZISSEN
100
AcDbLine
 10
204.8590515222807
 20
100.3620759057662
 30
0.0
 11
329.859051522281
 21
100.3620759057662
 31
0.0
  0
LEADER
  5
D7
330
2
100
AcDbEntity
  8
L-ZISSEN
100
AcDbLeader
  3
STANDARD
 73
     0
 74
     0
 40
5.599999999999998
 41
9.599999999999996
 76
     3
 10
174.3590515222807
 20
169.5620759057663
 30
0.0
 10
182.5597199605575
 20
192.550773746837
 30
0.0
 10
184.8867652987831
 20
192.550773746837
 30
0.0
210
0.0
220
0.0
230
-1.0
1001
ACAD
1000
DSTYLE
1002
{
1070
     5
1000

1070
    40
1040
2.0
1070
    41
1040
2.0
1070
    42
1040
2.0
1070
    44
1040
2.0
1070
    46
1040
1.0
1070
    73
1070
     0
1070
    74
1070
     0
1070
    77
1070
     1
1070
   140
1040
2.799999999999998
1070
   147
1040
1.0
1070
   172
1070
     1
1070
   174
1070
     1
1070
   271
1070
     1
1070
   287
1070
     5
1070
   342
1005
0
1002
}
1000
LEANOF
1010
0.0
1020
0.0
1030
0.0
1000
LEANOF
1010
0.0
1020
0.0
1030
0.0
  0
LINE
  5
D8
330
2
100
AcDbEntity
  8
L-ZISSEN
100
AcDbLine
 10
167.6090515222814
 20
214.3620759057668
 30
0.0
 11
167.6090515222809
 21
183.1620759057664
 31
0.0
  0
LINE
  5
D9
330
2
100
AcDbEntity
  8
L-ZISSEN
100
AcDbLine
 10
245.8590515222808
 20
135.8620759057661
 30
0.0
 11
221.5590515222809
 21
135.8620759057661
 31
0.0
  0
LINE
  5
DA
330
2
100
AcDbEntity
  8
L-ZISSEN
100
AcDbLine
 10
229.6590515222809
 20
179.8620759057661
 30
0.0
 11
179.5590515222809
 21
179.8620759057662
 31
0.0
  0
LINE
  5
DB
330
2
100
AcDbEntity
  8
L-ZISSEN
100
AcDbLine
 10
204.8590515222807
 20
91.36207590576622
 30
0.0
 11
230.1628990995741
 21
91.36207590576622
 31
0.0
  0
LINE
  5
DC
330
2
100
AcDbEntity
  8
L-ZISSEN
100
AcDbLine
 10
179.5590515222809
 20
179.8620759057661
 30
0.0
 11
179.5590515222809
 21
127.8620759057661
 31
0.0
  0
LINE
  5
DD
330
2
100
AcDbEntity
  8
L-ZISSEN
100
AcDbLine
 10
221.5590515222809
 20
179.8620759057661
 30
0.0
 11
221.5590515222809
 21
127.8620759057662
 31
0.0
  0
LINE
  5
DE
330
2
100
AcDbEntity
  8
L-ZISSEN
100
AcDbLine
 10
221.3590515222807
 20
127.8620759057661
 30
0.0
 11
221.3590515222807
 21
100.3620759057662
 31
0.0
  0
LINE
  5
DF
330
2
100
AcDbEntity
  8
L-ZISSEN
100
AcDbLine
 10
204.8590515222807
 20
91.36207590576622
 30
0.0
 11
204.8590515222807
 21
100.3620759057662
 31
0.0
  0
LINE
  5
E0
330
2
100
AcDbEntity
  8
L-ZISSEN
100
AcDbLine
 10
168.5590515222808
 20
138.1620759057663
 30
0.0
 11
168.5590515222808
 21
182.8620759057664
 31
0.0
  0
LINE
  5
E1
330
2
100
AcDbEntity
  8
L-ZISSEN
100
AcDbLine
 10
171.7590515222806
 20
169.8620759057661
 30
0.0
 11
176.959051522281
 21
169.8620759057661
 31
0.0
  0
LINE
  5
E2
330
2
100
AcDbEntity
  8
L-ZISSEN
100
AcDbLine
 10
171.7590515222806
 20
169.8620759057661
 30
0.0
 11
171.7590515222806
 21
169.5620759057663
 31
0.0
  0
LINE
  5
E3
330
2
100
AcDbEntity
  8
L-TYUSIN
100
AcDbLine
 10
174.3590515222807
 20
164.862075905766
 30
0.0
 11
174.3590515222807
 21
174.8620759057661
 31
0.0
  0
LINE
  5
E4
330
2
100
AcDbEntity
  8
L-ZISSEN
100
AcDbLine
 10
176.959051522281
 20
169.8620759057661
 30
0.0
 11
176.959051522281
 21
169.5620759057663
 31
0.0
  0
LINE
  5
E5
330
2
100
AcDbEntity
  8
L-ZISSEN
100
AcDbLine
 10
256.8590515222808
 20
126.8620759057662
 30
0.0
 11
256.8590515222808
 21
158.8620759057661
 31
0.0
  0
LINE
  5
E6
330
2
100
AcDbEntity
  8
L-ZISSEN
100
AcDbLine
 10
245.8590515222808
 20
126.8620759057662
 30
0.0
 11
245.8590515222808
 21
158.8620759057661
 31
0.0
  0
LINE
  5
E7
330
2
100
AcDbEntity
  8
L-ZISSEN
100
AcDbLine
 10
288.8590515222808
 20
126.8620759057662
 30
0.0
 11
288.8590515222808
 21
158.8620759057661
 31
0.0
  0
LINE
  5
E8
330
2
100
AcDbEntity
  8
L-ZISSEN
100
AcDbLine
 10
277.8590515222808
 20
126.8620759057662
 30
0.0
 11
277.8590515222808
 21
158.8620759057661
 31
0.0
  0
LINE
  5
E9
330
2
100
AcDbEntity
  8
L-TYUSIN
100
AcDbLine
 10
267.3590515222808
 20
172.8620759057661
 30
0.0
 11
267.3590515222808
 21
95.36207590576623
 31
0.0
  0
CIRCLE
  5
EA
330
2
100
AcDbEntity
  8
L-ZISSEN
100
AcDbCircle
 10
235.3590515222808
 20
113.3620759057662
 30
0.0
 40
5.7225
  0
LINE
  5
EB
330
2
100
AcDbEntity
  8
L-TYUSIN
100
AcDbLine
 10
235.3590515222808
 20
123.3620759057661
 30
0.0
 11
235.3590515222808
 21
103.3620759057662
 31
0.0
  0
LINE
  5
EC
330
2
100
AcDbEntity
  8
L-ZISSEN
100
AcDbLine
 10
235.3590515222808
 20
100.3620759057662
 30
0.0
 11
230.1628990995741
 21
91.36207590576622
 31
0.0
  0
LINE
  5
ED
330
2
100
AcDbEntity
  8
L-ZISSEN
100
AcDbLine
 10
230.1628990995741
 20
91.36207590576622
 30
0.0
 11
230.1628990995741
 21
100.3620759057662
 31
0.0
  0
LINE
  5
EE
330
2
100
AcDbEntity
  8
L-TYUSIN
100
AcDbLine
 10
225.3590515222807
 20
113.3620759057662
 30
0.0
 11
245.3590515222809
 21
113.3620759057662
 31
0.0
  0
CIRCLE
  5
EF
330
2
100
AcDbEntity
  8
L-ZISSEN
100
AcDbCircle
 10
267.3590515222808
 20
113.3620759057662
 30
0.0
 40
5.7225
  0
LINE
  5
F0
330
2
100
AcDbEntity
  8
L-TYUSIN
100
AcDbLine
 10
277.3590515222808
 20
113.3620759057662
 30
0.0
 11
257.3590515222808
 21
113.3620759057662
 31
0.0
  0
LINE
  5
F1
330
2
100
AcDbEntity
  8
L-ZISSEN
100
AcDbLine
 10
245.8590515222808
 20
158.8620759057661
 30
0.0
 11
256.8590515222808
 21
158.8620759057661
 31
0.0
  0
LINE
  5
F2
330
2
100
AcDbEntity
  8
L-ZISSEN
100
AcDbLine
 10
255.6090515222798
 20
165.1620759057663
 30
0.0
 11
255.6090515222798
 21
158.8620759057661
 31
0.0
  0
LINE
  5
F3
330
2
100
AcDbEntity
  8
L-ZISSEN
100
AcDbLine
 10
247.1090515222816
 20
165.1620759057663
 30
0.0
 11
247.1090515222816
 21
158.8620759057661
 31
0.0
  0
LINE
  5
F4
330
2
100
AcDbEntity
  8
L-ZISSEN
100
AcDbLine
 10
229.6590515222809
 20
179.8620759057661
 30
0.0
 11
229.6590515222809
 21
135.8620759057661
 31
0.0
  0
LINE
  5
F5
330
2
100
AcDbEntity
  8
L-ZISSEN
100
AcDbLine
 10
247.1090515222816
 20
165.1620759057663
 30
0.0
 11
255.6090515222798
 21
165.1620759057663
 31
0.0
  0
LINE
  5
F6
330
2
100
AcDbEntity
  8
L-ZISSEN
100
AcDbLine
 10
287.6090515222799
 20
165.1620759057663
 30
0.0
 11
287.6090515222799
 21
158.8620759057661
 31
0.0
  0
LINE
  5
F7
330
2
100
AcDbEntity
  8
L-ZISSEN
100
AcDbLine
 10
279.1090515222816
 20
165.1620759057663
 30
0.0
 11
279.1090515222816
 21
158.8620759057661
 31
0.0
  0
LINE
  5
F8
330
2
100
AcDbEntity
  8
L-ZISSEN
100
AcDbLine
 10
277.8590515222808
 20
135.8620759057661
 30
0.0
 11
256.8590515222808
 21
135.8620759057661
 31
0.0
  0
LINE
  5
F9
330
2
100
AcDbEntity
  8
L-ZISSEN
100
AcDbLine
 10
288.8590515222808
 20
158.8620759057661
 30
0.0
 11
277.8590515222808
 21
158.8620759057661
 31
0.0
  0
LINE
  5
FA
330
2
100
AcDbEntity
  8
L-ZISSEN
100
AcDbLine
 10
287.6090515222799
 20
165.1620759057663
 30
0.0
 11
279.1090515222816
 21
165.1620759057663
 31
0.0
  0
LINE
  5
FB
330
2
100
AcDbEntity
  8
L-ZISSEN
100
AcDbLine
 10
221.5590515222809
 20
261.8620759057661
 30
0.0
 11
229.6590515222809
 21
261.8620759057661
 31
0.0
  0
LINE
  5
FC
330
2
100
AcDbEntity
  8
L-ZISSEN
100
AcDbLine
 10
230.1628990995739
 20
252.8620759057661
 30
0.0
 11
212.3590515222808
 21
247.3620759057656
 31
0.0
  0
MTEXT
  5
FD
330
2
100
AcDbEntity
  8
L-ZISSEN
100
AcDbMText
 10
186.9161882897449
 20
194.550773746837
 30
0.0
 40
4.5
 41
0.0
 71
     7
 72
     1
  1
P.P
1001
ACAD
1000
MTEXTBEGIN
1070
    73
1070
     1
1070
    44
1040
1.0
1070
    74
1070
     0
1000
MTEXTEND
1000
MTEXTBEGIN
1070
    73
1070
     1
1070
    44
1040
1.0
1070
    74
1070
     0
1000
MTEXTEND
1000
MTEXTBEGIN
1070
    73
1070
     1
1070
    44
1040
1.0
1070
    74
1070
     0
1000
MTEXTEND
  0
LINE
  5
FE
330
2
100
AcDbEntity
  8
L-ZISSEN
100
AcDbLine
 10
221.5590515222809
 20
263.2620759057662
 30
0.0
 11
179.5590515222809
 21
263.2620759057662
 31
0.0
  0
CIRCLE
  5
FF
330
2
100
AcDbEntity
  8
L-ZISSEN
100
AcDbCircle
 10
174.3590515222788
 20
278.8620759057661
 30
0.0
 40
1.500000000000099
  0
CIRCLE
  5
100
330
2
100
AcDbEntity
  8
L-ZISSEN
100
AcDbCircle
 10
174.3590515222788
 20
278.8620759057661
 30
0.0
 40
2.600000000000008
  0
LINE
  5
101
330
2
100
AcDbEntity
  8
L-ZISSEN
100
AcDbLine
 10
168.5590515222785
 20
267.4620759057659
 30
0.0
 11
179.5590515222809
 21
267.4620759057659
 31
0.0
  0
CIRCLE
  5
102
330
2
100
AcDbEntity
  8
L-ZISSEN
100
AcDbCircle
 10
188.3590515222809
 20
278.8620759057661
 30
0.0
 40
2.149999999999999
  0
LINE
  5
103
330
2
100
AcDbEntity
  8
L-TYUSIN
100
AcDbLine
 10
212.3590515222808
 20
244.8620759057661
 30
0.0
 11
212.3590515222808
 21
264.8620759057659
 31
0.0
  0
ARC
  5
104
330
2
100
AcDbEntity
  8
L-ZISSEN
100
AcDbCircle
 10
212.3590515222808
 20
254.8620759057661
 30
0.0
 40
7.5
100
AcDbArc
 50
119.9999999999997
 51
270.0
  0
CIRCLE
  5
105
330
2
100
AcDbEntity
  8
L-ZISSEN
100
AcDbCircle
 10
212.3590515222808
 20
254.8620759057661
 30
0.0
 40
3.5
  0
LINE
  5
106
330
2
100
AcDbEntity
  8
L-TYUSIN
100
AcDbLine
 10
222.3590515222816
 20
254.8620759057661
 30
0.0
 11
202.3590515222816
 21
254.8620759057661
 31
0.0
  0
LINE
  5
107
330
2
100
AcDbEntity
  8
L-ZISSEN
100
AcDbLine
 10
211.9082783058531
 20
263.2620759057666
 30
0.0
 11
208.609051522279
 21
261.3572664341524
 31
0.0
  0
LINE
  5
108
330
2
100
AcDbEntity
  8
L-ZISSEN
100
AcDbLine
 10
256.8590515222808
 20
253.8620759057661
 30
0.0
 11
245.8590515222808
 21
253.8620759057661
 31
0.0
  0
LINE
  5
109
330
2
100
AcDbEntity
  8
L-ZISSEN
100
AcDbLine
 10
245.8590515222808
 20
253.8620759057661
 30
0.0
 11
245.8590515222808
 21
262.8620759057656
 31
0.0
  0
CIRCLE
  5
10A
330
2
100
AcDbEntity
  8
L-ZISSEN
100
AcDbCircle
 10
251.3590515222808
 20
259.3620759057661
 30
0.0
 40
4.25
  0
LINE
  5
10B
330
2
100
AcDbEntity
  8
L-TYUSIN
100
AcDbLine
 10
235.3590515222808
 20
247.8620759057661
 30
0.0
 11
235.3590515222808
 21
257.8620759057661
 31
0.0
  0
LINE
  5
10C
330
2
100
AcDbEntity
  8
L-ZISSEN
100
AcDbLine
 10
245.8590515222808
 20
262.8620759057656
 30
0.0
 11
229.6590515222809
 21
262.8620759057656
 31
0.0
  0
LINE
  5
10D
330
2
100
AcDbEntity
  8
L-ZISSEN
100
AcDbLine
 10
288.8590515222808
 20
253.8620759057661
 30
0.0
 11
288.8590515222808
 21
262.8620759057656
 31
0.0
  0
LINE
  5
10E
330
2
100
AcDbEntity
  8
L-ZISSEN
100
AcDbLine
 10
277.8590515222808
 20
253.8620759057661
 30
0.0
 11
277.8590515222808
 21
262.8620759057656
 31
0.0
  0
CIRCLE
  5
10F
330
2
100
AcDbEntity
  8
L-ZISSEN
100
AcDbCircle
 10
283.3590515222809
 20
259.3620759057661
 30
0.0
 40
4.25
  0
LINE
  5
110
330
2
100
AcDbEntity
  8
L-ZISSEN
100
AcDbLine
 10
256.8590515222808
 20
253.8620759057661
 30
0.0
 11
256.8590515222808
 21
262.8620759057656
 31
0.0
  0
LINE
  5
111
330
2
100
AcDbEntity
  8
L-ZISSEN
100
AcDbLine
 10
277.8590515222808
 20
253.8620759057661
 30
0.0
 11
288.8590515222808
 21
253.8620759057661
 31
0.0
  0
LINE
  5
112
330
2
100
AcDbEntity
  8
L-ZISSEN
100
AcDbLine
 10
277.8590515222808
 20
262.8620759057656
 30
0.0
 11
256.8590515222808
 21
262.8620759057656
 31
0.0
  0
LINE
  5
113
330
2
100
AcDbEntity
  8
L-TYUSIN
  6
CONTINUOUS
100
AcDbLine
 10
379.6340515222818
 20
219.3620759057667
 30
0.0
 11
379.6340515222818
 21
164.38322438687
 31
0.0
  0
LEADER
  5
114
330
2
100
AcDbEntity
  8
L-ZISSEN
100
AcDbLeader
  3
STANDARD
 73
     0
 74
     0
 40
5.599999999999998
 41
9.599999999999996
 76
     3
 10
360.3590515222808
 20
169.5620759057663
 30
0.0
 10
352.1583830840039
 20
192.550773746837
 30
0.0
 10
349.8313377457783
 20
192.550773746837
 30
0.0
211
-1.0
221
0.0
231
0.0
1001
ACAD
1000
DSTYLE
1002
{
1070
     5
1000

1070
    40
1040
2.0
1070
    41
1040
2.0
1070
    42
1040
2.0
1070
    44
1040
2.0
1070
    46
1040
1.0
1070
    73
1070
     0
1070
    74
1070
     0
1070
    77
1070
     1
1070
   140
1040
2.799999999999998
1070
   147
1040
1.0
1070
   172
1070
     1
1070
   174
1070
     1
1070
   271
1070
     1
1070
   287
1070
     5
1070
   342
1005
0
1002
}
1000
LEANOF
1010
0.0
1020
0.0
1030
0.0
1000
LEANOF
1010
0.0
1020
0.0
1030
0.0
  0
LINE
  5
115
330
2
100
AcDbEntity
  8
L-ZISSEN
100
AcDbLine
 10
393.1090515222808
 20
214.3620759057669
 30
0.0
 11
393.1090515222808
 21
183.1620759057664
 31
0.0
  0
LINE
  5
116
330
2
100
AcDbEntity
  8
L-ZISSEN
100
AcDbLine
 10
367.1090515222803
 20
214.3620759057668
 30
0.0
 11
367.1090515222808
 21
183.1620759057664
 31
0.0
  0
LEADER
  5
117
330
2
100
AcDbEntity
  8
L-ZISSEN
100
AcDbLeader
  3
STANDARD
 73
     0
 74
     0
 40
5.599999999999998
 41
9.599999999999996
 76
     3
 10
346.3590515222808
 20
127.8620759057659
 30
0.0
 10
363.6651376767876
 20
107.698117171597
 30
0.0
 10
373.7398633856163
 20
107.698117171597
 30
0.0
1001
ACAD
1000
DSTYLE
1002
{
1070
     5
1000

1070
    40
1040
2.0
1070
    41
1040
2.0
1070
    42
1040
2.0
1070
    44
1040
2.0
1070
    46
1040
1.0
1070
    73
1070
     0
1070
    74
1070
     0
1070
    77
1070
     1
1070
   140
1040
2.799999999999998
1070
   147
1040
1.0
1070
   172
1070
     1
1070
   174
1070
     1
1070
   271
1070
     1
1070
   287
1070
     5
1070
   342
1005
0
1002
}
1000
LEANOF
1010
0.0
1020
0.0
1030
0.0
1000
LEANOF
1010
0.0
1020
0.0
1030
0.0
  0
LINE
  5
118
330
2
100
AcDbEntity
  8
L-ZISSEN
100
AcDbLine
 10
355.159051522281
 20
179.8620759057661
 30
0.0
 11
305.0590515222807
 21
179.8620759057661
 31
0.0
  0
LINE
  5
119
330
2
100
AcDbEntity
  8
L-ZISSEN
100
AcDbLine
 10
313.1590515222808
 20
127.8620759057662
 30
0.0
 11
313.1590515222808
 21
179.8620759057661
 31
0.0
  0
LINE
  5
11A
330
2
100
AcDbEntity
  8
L-ZISSEN
100
AcDbLine
 10
313.1590515222808
 20
128.0620759057659
 30
0.0
 11
313.1590515222808
 21
179.6620759057664
 31
0.0
  0
LINE
  5
11B
330
2
100
AcDbEntity
  8
L-ZISSEN
100
AcDbLine
 10
313.1590515222808
 20
127.8620759057662
 30
0.0
 11
313.1590515222808
 21
179.8620759057661
 31
0.0
  0
LINE
  5
11C
330
2
100
AcDbEntity
  8
L-ZISSEN
100
AcDbLine
 10
304.5552039449878
 20
91.36207590576622
 30
0.0
 11
329.859051522281
 21
91.36207590576622
 31
0.0
  0
CIRCLE
  5
11D
330
2
100
AcDbEntity
  8
L-ZISSEN
100
AcDbCircle
 10
299.3590515222809
 20
113.3620759057662
 30
0.0
 40
5.7225
  0
LINE
  5
11E
330
2
100
AcDbEntity
  8
L-TYUSIN
100
AcDbLine
 10
299.3590515222809
 20
123.3620759057661
 30
0.0
 11
299.3590515222809
 21
103.3620759057662
 31
0.0
  0
LINE
  5
11F
330
2
100
AcDbEntity
  8
L-ZISSEN
100
AcDbLine
 10
313.3590515222808
 20
127.8620759057661
 30
0.0
 11
313.3590515222808
 21
100.3620759057662
 31
0.0
  0
LINE
  5
120
330
2
100
AcDbEntity
  8
L-ZISSEN
100
AcDbLine
 10
304.5552039449878
 20
91.36207590576622
 30
0.0
 11
304.5552039449878
 21
100.3620759057662
 31
0.0
  0
LINE
  5
121
330
2
100
AcDbEntity
  8
L-ZISSEN
100
AcDbLine
 10
299.3590515222811
 20
100.3620759057662
 30
0.0
 11
304.5552039449878
 21
91.36207590576622
 31
0.0
  0
LINE
  5
122
330
2
100
AcDbEntity
  8
L-TYUSIN
100
AcDbLine
 10
309.3590515222808
 20
113.3620759057662
 30
0.0
 11
289.3590515222808
 21
113.3620759057662
 31
0.0
  0
LINE
  5
123
330
2
100
AcDbEntity
  8
L-ZISSEN
100
AcDbLine
 10
329.859051522281
 20
91.36207590576622
 30
0.0
 11
329.859051522281
 21
100.3620759057662
 31
0.0
  0
LINE
  5
124
330
2
100
AcDbEntity
  8
L-ZISSEN
100
AcDbLine
 10
305.0590515222808
 20
135.8620759057661
 30
0.0
 11
305.0590515222808
 21
179.8620759057661
 31
0.0
  0
LINE
  5
125
330
2
100
AcDbEntity
  8
L-ZISSEN
100
AcDbLine
 10
355.159051522281
 20
179.8620759057662
 30
0.0
 11
355.1590515222808
 21
127.8620759057661
 31
0.0
  0
MTEXT
  5
126
330
2
100
AcDbEntity
  8
L-ZISSEN
100
AcDbMText
 10
375.7398633856163
 20
109.698117171597
 30
0.0
 40
4.5
 41
0.0
 71
     7
 72
     1
  1
P.P
1001
ACAD
1000
MTEXTBEGIN
1070
    73
1070
     1
1070
    44
1040
1.0
1070
    74
1070
     0
1000
MTEXTEND
1000
MTEXTBEGIN
1070
    73
1070
     1
1070
    44
1040
1.0
1070
    74
1070
     0
1000
MTEXTEND
1000
MTEXTBEGIN
1070
    73
1070
     1
1070
    44
1040
1.0
1070
    74
1070
     0
1000
MTEXTEND
  0
LINE
  5
127
330
2
100
AcDbEntity
  8
L-ZISSEN
100
AcDbLine
 10
366.1590515222808
 20
182.8620759057664
 30
0.0
 11
394.3590515222808
 21
182.8620759057664
 31
0.0
  0
LINE
  5
128
330
2
100
AcDbEntity
  8
L-ZISSEN
100
AcDbLine
 10
398.3590515222808
 20
169.5620759057663
 30
0.0
 11
355.159051522281
 21
169.5620759057663
 31
0.0
  0
LINE
  5
129
330
2
100
AcDbEntity
  8
L-ZISSEN
100
AcDbLine
 10
394.3590515222808
 20
173.3620759057664
 30
0.0
 11
366.1590515222808
 21
173.3620759057656
 31
0.0
  0
LINE
  5
12A
330
2
100
AcDbEntity
  8
L-ZISSEN
100
AcDbLine
 10
366.1590515222808
 20
178.3620759057664
 30
0.0
 11
394.3590515222808
 21
178.3620759057664
 31
0.0
  0
LINE
  5
12B
330
2
100
AcDbEntity
  8
L-ZISSEN
100
AcDbLine
 10
398.3590515222808
 20
138.1620759057663
 30
0.0
 11
355.1590515222808
 21
138.1620759057663
 31
0.0
  0
LINE
  5
12C
330
2
100
AcDbEntity
  8
L-ZISSEN
100
AcDbLine
 10
366.1590515222808
 20
138.1620759057663
 30
0.0
 11
366.1590515222808
 21
182.8620759057664
 31
0.0
  0
LINE
  5
12D
330
2
100
AcDbEntity
  8
L-TYUSIN
100
AcDbLine
 10
360.3590515222808
 20
164.862075905766
 30
0.0
 11
360.3590515222808
 21
174.8620759057661
 31
0.0
  0
LINE
  5
12E
330
2
100
AcDbEntity
  8
L-ZISSEN
100
AcDbLine
 10
357.7590515222806
 20
169.8620759057661
 30
0.0
 11
357.7590515222806
 21
169.5620759057663
 31
0.0
  0
LINE
  5
12F
330
2
100
AcDbEntity
  8
L-ZISSEN
100
AcDbLine
 10
362.959051522281
 20
169.8620759057661
 30
0.0
 11
362.959051522281
 21
169.5620759057663
 31
0.0
  0
LINE
  5
130
330
2
100
AcDbEntity
  8
L-ZISSEN
100
AcDbLine
 10
362.959051522281
 20
169.8620759057661
 30
0.0
 11
357.7590515222806
 21
169.8620759057661
 31
0.0
  0
LINE
  5
131
330
2
100
AcDbEntity
  8
L-ZISSEN
100
AcDbLine
 10
396.3590515222808
 20
138.1620759057663
 30
0.0
 11
396.3590515222808
 21
169.5620759057663
 31
0.0
  0
LINE
  5
132
330
2
100
AcDbEntity
  8
L-ZISSEN
100
AcDbLine
 10
391.8590515222808
 20
138.1620759057663
 30
0.0
 11
391.8590515222808
 21
173.3620759057664
 31
0.0
  0
LINE
  5
133
330
2
100
AcDbEntity
  8
L-ZISSEN
100
AcDbLine
 10
398.3590515222808
 20
138.1620759057663
 30
0.0
 11
398.3590515222808
 21
169.5620759057663
 31
0.0
  0
LINE
  5
134
330
2
100
AcDbEntity
  8
L-ZISSEN
100
AcDbLine
 10
398.3590515222808
 20
162.1120759057665
 30
0.0
 11
396.3590515222808
 21
162.1120759057665
 31
0.0
  0
LINE
  5
135
330
2
100
AcDbEntity
  8
L-ZISSEN
100
AcDbLine
 10
398.3590515222808
 20
167.6120759057665
 30
0.0
 11
396.3590515222808
 21
167.6120759057665
 31
0.0
  0
LINE
  5
136
330
2
100
AcDbEntity
  8
L-ZISSEN
100
AcDbLine
 10
398.3590515222808
 20
161.3620759057665
 30
0.0
 11
396.3590515222808
 21
161.3620759057665
 31
0.0
  0
LINE
  5
137
330
2
100
AcDbEntity
  8
L-ZISSEN
100
AcDbLine
 10
394.3590515222808
 20
173.3620759057664
 30
0.0
 11
394.3590515222808
 21
182.8620759057664
 31
0.0
  0
LINE
  5
138
330
2
100
AcDbEntity
  8
L-TYUSIN
100
AcDbLine
 10
412.8590515222806
 20
278.8620759057661
 30
0.0
 11
347.6590515222808
 21
278.8620759057661
 31
0.0
  0
LINE
  5
139
330
2
100
AcDbEntity
  8
L-ZISSEN
100
AcDbLine
 10
313.1590515222808
 20
263.2620759057662
 30
0.0
 11
355.1590515222808
 21
263.2620759057662
 31
0.0
  0
MTEXT
  5
13A
330
2
100
AcDbEntity
  8
L-ZISSEN
100
AcDbMText
 10
338.8697534086657
 20
194.550773746837
 30
0.0
 40
4.5
 41
0.0
 71
     7
 72
     1
  1
P.P
1001
ACAD
1000
MTEXTBEGIN
1070
    73
1070
     1
1070
    44
1040
1.0
1070
    74
1070
     0
1000
MTEXTEND
1000
MTEXTBEGIN
1070
    73
1070
     1
1070
    44
1040
1.0
1070
    74
1070
     0
1000
MTEXTEND
1000
MTEXTBEGIN
1070
    73
1070
     1
1070
    44
1040
1.0
1070
    74
1070
     0
1000
MTEXTEND
  0
LINE
  5
13B
330
2
100
AcDbEntity
  8
L-TYUSIN
100
AcDbLine
 10
312.3590515222801
 20
254.8620759057661
 30
0.0
 11
332.3590515222802
 21
254.8620759057661
 31
0.0
  0
LINE
  5
13C
330
2
100
AcDbEntity
  8
L-ZISSEN
100
AcDbLine
 10
304.5552039449878
 20
252.8620759057661
 30
0.0
 11
322.3590515222809
 21
247.3620759057656
 31
0.0
  0
CIRCLE
  5
13D
330
2
100
AcDbEntity
  8
L-ZISSEN
100
AcDbCircle
 10
322.3590515222809
 20
254.8620759057661
 30
0.0
 40
3.5
  0
LINE
  5
13E
330
2
100
AcDbEntity
  8
L-TYUSIN
100
AcDbLine
 10
299.3590515222809
 20
247.8620759057661
 30
0.0
 11
299.3590515222809
 21
257.8620759057661
 31
0.0
  0
LINE
  5
13F
330
2
100
AcDbEntity
  8
L-ZISSEN
100
AcDbLine
 10
305.0590515222808
 20
261.8620759057661
 30
0.0
 11
313.1590515222808
 21
261.8620759057661
 31
0.0
  0
ARC
  5
140
330
2
100
AcDbEntity
  8
L-ZISSEN
100
AcDbCircle
 10
322.3590515222809
 20
254.8620759057661
 30
0.0
 40
7.5
100
AcDbArc
 50
270.0
 51
60.00000000000015
  0
LINE
  5
141
330
2
100
AcDbEntity
  8
L-TYUSIN
100
AcDbLine
 10
322.3590515222809
 20
244.8620759057661
 30
0.0
 11
322.3590515222809
 21
264.8620759057659
 31
0.0
  0
LINE
  5
142
330
2
100
AcDbEntity
  8
L-ZISSEN
100
AcDbLine
 10
322.8098247387086
 20
263.2620759057666
 30
0.0
 11
326.1090515222826
 21
261.3572664341524
 31
0.0
  0
CIRCLE
  5
143
330
2
100
AcDbEntity
  8
L-ZISSEN
100
AcDbCircle
 10
346.3590515222808
 20
278.8620759057661
 30
0.0
 40
2.149999999999999
  0
LINE
  5
144
330
2
100
AcDbEntity
  8
L-ZISSEN
100
AcDbLine
 10
393.1090515222808
 20
214.3620759057669
 30
0.0
 11
367.1090515222803
 21
214.3620759057668
 31
0.0
  0
LINE
  5
145
330
2
100
AcDbEntity
  8
L-ZISSEN
100
AcDbLine
 10
408.6090515222803
 20
214.3620759057668
 30
0.0
 11
408.6090515222803
 21
191.9620759057666
 31
0.0
  0
LINE
  5
146
330
2
100
AcDbEntity
  8
L-ZISSEN
100
AcDbLine
 10
413.3590515222806
 20
214.3620310203696
 30
0.0
 11
413.3590515222808
 21
191.892420791164
 31
0.0
  0
LINE
  5
147
330
2
100
AcDbEntity
  8
L-ZISSEN
100
AcDbLine
 10
418.3590515222808
 20
214.3620310203696
 30
0.0
 11
418.3590515222808
 21
191.892420791164
 31
0.0
  0
LINE
  5
148
330
2
100
AcDbEntity
  8
L-ZISSEN
100
AcDbLine
 10
408.6090515222803
 20
191.9620759057666
 30
0.0
 11
393.1090515222808
 21
191.9620759057666
 31
0.0
  0
LINE
  5
149
330
2
100
AcDbEntity
  8
L-ZISSEN
100
AcDbLine
 10
413.3590515222808
 20
193.7120759057669
 30
0.0
 11
408.6090515222803
 21
193.7120759057669
 31
0.0
  0
LINE
  5
14A
330
2
100
AcDbEntity
  8
L-ZISSEN
100
AcDbLine
 10
418.3590515222808
 20
191.892420791164
 30
0.0
 11
413.3590515222808
 21
191.892420791164
 31
0.0
  0
LINE
  5
14B
330
2
100
AcDbEntity
  8
L-ZISSEN
100
AcDbLine
 10
393.1090515222808
 20
214.3620759057669
 30
0.0
 11
408.6090515222803
 21
214.3620759057668
 31
0.0
  0
LINE
  5
14C
330
2
100
AcDbEntity
  8
L-ZISSEN
100
AcDbLine
 10
413.3590515222808
 20
212.3120759057665
 30
0.0
 11
408.6090515222803
 21
212.3120759057665
 31
0.0
  0
LINE
  5
14D
330
2
100
AcDbEntity
  8
L-ZISSEN
100
AcDbLine
 10
418.3590515222808
 20
214.3620310203696
 30
0.0
 11
413.3590515222808
 21
214.3620310203696
 31
0.0
  0
LINE
  5
14E
330
2
100
AcDbEntity
  8
L-ZISSEN
100
AcDbLine
 10
393.1090515222809
 20
263.862075905766
 30
0.0
 11
366.159051522283
 21
263.8620759057661
 31
0.0
  0
LINE
  5
14F
330
2
100
AcDbEntity
  8
L-ZISSEN
100
AcDbLine
 10
393.1090515222809
 20
263.8620759057661
 30
0.0
 11
366.159051522283
 21
263.8620759057662
 31
0.0
  0
LINE
  5
150
330
2
100
AcDbEntity
  8
L-ZISSEN
100
AcDbLine
 10
366.159051522283
 20
267.4620759057659
 30
0.0
 11
355.1590515222808
 21
267.4620759057659
 31
0.0
  0
CIRCLE
  5
151
330
2
100
AcDbEntity
  8
L-ZISSEN
100
AcDbCircle
 10
360.3590515222828
 20
278.8620759057661
 30
0.0
 40
2.600000000000008
  0
CIRCLE
  5
152
330
2
100
AcDbEntity
  8
L-ZISSEN
100
AcDbCircle
 10
360.3590515222828
 20
278.8620759057661
 30
0.0
 40
1.500000000000099
  0
LINE
  5
153
330
2
100
AcDbEntity
  8
L-ZISSEN
100
AcDbLine
 10
408.6090515222831
 20
267.6620759057663
 30
0.0
 11
393.1090515222809
 21
267.6620759057663
 31
0.0
  0
LINE
  5
154
330
2
100
AcDbEntity
  8
L-ZISSEN
100
AcDbLine
 10
413.3590515222831
 20
269.7120759057659
 30
0.0
 11
408.6090515222831
 21
269.7120759057659
 31
0.0
  0
LINE
  5
155
330
2
100
AcDbEntity
  8
L-ZISSEN
100
AcDbLine
 10
418.3590515222836
 20
269.3620759057661
 30
0.0
 11
413.3590515222831
 21
269.3620759057661
 31
0.0
  0
LINE
  5
156
330
2
100
AcDbEntity
  8
L-TYUSIN
100
AcDbLine
 10
131.0590515222809
 20
403.8620759057661
 30
0.0
 11
403.6590515222808
 21
403.8620759057661
 31
0.0
  0
LINE
  5
157
330
2
100
AcDbEntity
  8
L-ZISSEN
100
AcDbLine
 10
141.6090515222809
 20
293.8620759057661
 30
0.0
 11
168.5590515222785
 21
293.8620759057661
 31
0.0
  0
LINE
  5
158
330
2
100
AcDbEntity
  8
L-ZISSEN
100
AcDbLine
 10
141.6090515222809
 20
293.8620759057661
 30
0.0
 11
168.5590515222785
 21
293.8620759057661
 31
0.0
  0
LINE
  5
159
330
2
100
AcDbEntity
  8
L-ZISSEN
100
AcDbLine
 10
140.3590515222809
 20
384.3620759057658
 30
0.0
 11
168.5590515222808
 21
384.3620759057666
 31
0.0
  0
LINE
  5
15A
330
2
100
AcDbEntity
  8
L-ZISSEN
100
AcDbLine
 10
136.3590515222809
 20
388.1620759057661
 30
0.0
 11
179.5590515222809
 21
388.1620759057661
 31
0.0
  0
LINE
  5
15B
330
2
100
AcDbEntity
  8
L-ZISSEN
100
AcDbLine
 10
136.3590515222809
 20
419.5620759057661
 30
0.0
 11
179.5590515222809
 21
419.5620759057661
 31
0.0
  0
LINE
  5
15C
330
2
100
AcDbEntity
  8
L-ZISSEN
100
AcDbLine
 10
141.6090515222809
 20
343.3620759057656
 30
0.0
 11
167.6090515222814
 21
343.3620759057656
 31
0.0
  0
LINE
  5
15D
330
2
100
AcDbEntity
  8
L-ZISSEN
100
AcDbLine
 10
168.5590515222808
 20
374.8620759057658
 30
0.0
 11
140.3590515222809
 21
374.8620759057658
 31
0.0
  0
LINE
  5
15E
330
2
100
AcDbEntity
  8
L-ZISSEN
100
AcDbLine
 10
168.5590515222808
 20
379.3620759057658
 30
0.0
 11
140.3590515222809
 21
379.3620759057658
 31
0.0
  0
MTEXT
  5
15F
330
2
100
AcDbEntity
  8
L-ZISSEN
100
AcDbMText
 10
161.5259093712561
 20
307.3466006667507
 30
0.0
 40
4.5
 41
0.0
 71
     9
 72
     1
  1
P.P
1001
ACAD
1000
MTEXTBEGIN
1070
    73
1070
     1
1070
    44
1040
1.0
1070
    74
1070
     0
1000
MTEXTEND
1000
MTEXTBEGIN
1070
    73
1070
     1
1070
    44
1040
1.0
1070
    74
1070
     0
1000
MTEXTEND
1000
MTEXTBEGIN
1070
    73
1070
     1
1070
    44
1040
1.0
1070
    74
1070
     0
1000
MTEXTEND
  0
TEXT
  5
160
330
2
100
AcDbEntity
  8
L-ZISSEN
100
AcDbText
 10
134.04375139279
 20
508.4168555440665
 30
0.0
 40
4.5
  1
 MVD-492-02Y
100
AcDbText
  0
TEXT
  5
161
330
2
100
AcDbEntity
  8
L-ZISSEN
100
AcDbText
 10
134.04375139279
 20
515.6554592502053
 30
0.0
 40
4.5
  1
MODEL No.
100
AcDbText
  0
LINE
  5
162
330
2
100
AcDbEntity
  8
L-TYUSIN
  6
CONTINUOUS
100
AcDbLine
 10
155.0840515222796
 20
338.3620759057655
 30
0.0
 11
155.0840515222796
 21
393.3409274246621
 31
0.0
  0
LINE
  5
163
330
2
100
AcDbEntity
  8
L-ZISSEN
100
AcDbLine
 10
140.3590515222809
 20
384.3620759057658
 30
0.0
 11
140.3590515222809
 21
374.8620759057658
 31
0.0
  0
LINE
  5
164
330
2
100
AcDbEntity
  8
L-ZISSEN
100
AcDbLine
 10
121.3590515222781
 20
288.0120759057662
 30
0.0
 11
126.1090515222786
 21
288.0120759057662
 31
0.0
  0
LINE
  5
165
330
2
100
AcDbEntity
  8
L-ZISSEN
100
AcDbLine
 10
116.3590515222781
 20
288.3620759057661
 30
0.0
 11
121.3590515222785
 21
288.3620759057661
 31
0.0
  0
LINE
  5
166
330
2
100
AcDbEntity
  8
L-ZISSEN
100
AcDbLine
 10
126.1090515222786
 20
290.0620759057662
 30
0.0
 11
141.6090515222809
 21
290.0620759057662
 31
0.0
  0
LINE
  5
167
330
2
100
AcDbEntity
  8
L-TYUSIN
  6
CONTINUOUS
100
AcDbLine
 10
111.3590515222809
 20
354.5969259057656
 30
0.0
 11
155.0840515222796
 21
354.5969259057656
 31
0.0
  0
LINE
  5
168
330
2
100
AcDbEntity
  8
L-ZISSEN
100
AcDbLine
 10
121.3590515222809
 20
364.0120759057655
 30
0.0
 11
126.1090515222814
 21
364.0120759057655
 31
0.0
  0
LINE
  5
169
330
2
100
AcDbEntity
  8
L-ZISSEN
100
AcDbLine
 10
121.3590515222809
 20
345.4120759057658
 30
0.0
 11
126.1090515222814
 21
345.4120759057658
 31
0.0
  0
LINE
  5
16A
330
2
100
AcDbEntity
  8
L-ZISSEN
100
AcDbLine
 10
121.3590515222809
 20
343.3621207911627
 30
0.0
 11
121.3590515222809
 21
365.8317310203683
 31
0.0
  0
LINE
  5
16B
330
2
100
AcDbEntity
  8
L-ZISSEN
100
AcDbLine
 10
116.3590515222809
 20
343.3621207911627
 30
0.0
 11
116.3590515222809
 21
365.8317310203683
 31
0.0
  0
LINE
  5
16C
330
2
100
AcDbEntity
  8
L-ZISSEN
100
AcDbLine
 10
116.3590515222809
 20
343.3621207911627
 30
0.0
 11
121.3590515222809
 21
343.3621207911627
 31
0.0
  0
LINE
  5
16D
330
2
100
AcDbEntity
  8
L-ZISSEN
100
AcDbLine
 10
116.3590515222809
 20
365.8317310203683
 30
0.0
 11
121.3590515222809
 21
365.8317310203683
 31
0.0
  0
LINE
  5
16E
330
2
100
AcDbEntity
  8
L-ZISSEN
100
AcDbLine
 10
126.1090515222814
 20
343.3620759057656
 30
0.0
 11
126.1090515222814
 21
365.7620759057657
 31
0.0
  0
LINE
  5
16F
330
2
100
AcDbEntity
  8
L-ZISSEN
100
AcDbLine
 10
141.6090515222809
 20
343.3620759057656
 30
0.0
 11
141.6090515222809
 21
374.5620759057658
 31
0.0
  0
LINE
  5
170
330
2
100
AcDbEntity
  8
L-ZISSEN
100
AcDbLine
 10
126.1090515222814
 20
343.3620759057656
 30
0.0
 11
141.6090515222809
 21
343.3620759057656
 31
0.0
  0
LINE
  5
171
330
2
100
AcDbEntity
  8
L-ZISSEN
100
AcDbLine
 10
126.1090515222814
 20
365.7620759057657
 30
0.0
 11
141.6090515222809
 21
365.7620759057657
 31
0.0
  0
LINE
  5
172
330
2
100
AcDbEntity
  8
L-ZISSEN
100
AcDbLine
 10
136.3590515222809
 20
419.5620759057661
 30
0.0
 11
136.3590515222809
 21
388.1620759057661
 31
0.0
  0
LINE
  5
173
330
2
100
AcDbEntity
  8
L-ZISSEN
100
AcDbLine
 10
138.3590515222809
 20
419.5620759057661
 30
0.0
 11
138.3590515222809
 21
388.1620759057661
 31
0.0
  0
LINE
  5
174
330
2
100
AcDbEntity
  8
L-ZISSEN
100
AcDbLine
 10
142.8590515222809
 20
419.5620759057661
 30
0.0
 11
142.8590515222809
 21
384.3620759057658
 31
0.0
  0
LINE
  5
175
330
2
100
AcDbEntity
  8
L-ZISSEN
100
AcDbLine
 10
136.3590515222809
 20
411.3620759057663
 30
0.0
 11
138.3590515222809
 21
411.3620759057663
 31
0.0
  0
LINE
  5
176
330
2
100
AcDbEntity
  8
L-ZISSEN
100
AcDbLine
 10
136.3590515222809
 20
412.1120759057663
 30
0.0
 11
138.3590515222809
 21
412.1120759057663
 31
0.0
  0
LINE
  5
177
330
2
100
AcDbEntity
  8
L-ZISSEN
100
AcDbLine
 10
136.3590515222809
 20
417.6120759057663
 30
0.0
 11
138.3590515222809
 21
417.6120759057663
 31
0.0
  0
LINE
  5
178
330
2
100
AcDbEntity
  8
L-ZISSEN
100
AcDbLine
 10
291.8590515222808
 20
421.8620759057661
 30
0.0
 11
242.8590515222809
 21
421.8620759057662
 31
0.0
  0
LINE
  5
179
330
2
100
AcDbEntity
  8
L-TYUSIN
100
AcDbLine
 10
293.3590515222809
 20
444.3620759057661
 30
0.0
 11
273.3590515222808
 21
444.3620759057661
 31
0.0
  0
LINE
  5
17A
330
2
100
AcDbEntity
  8
L-ZISSEN
100
AcDbLine
 10
204.8590515222807
 20
457.3620759057662
 30
0.0
 11
329.859051522281
 21
457.3620759057662
 31
0.0
  0
LINE
  5
17B
330
2
100
AcDbEntity
  8
L-ZISSEN
100
AcDbLine
 10
179.5590515222811
 20
429.8620759057662
 30
0.0
 11
355.1590515222808
 21
429.8620759057662
 31
0.0
  0
LINE
  5
17C
330
2
100
AcDbEntity
  8
L-ZISSEN
100
AcDbLine
 10
221.3590515222807
 20
430.8620759057662
 30
0.0
 11
313.3590515222808
 21
430.8620759057662
 31
0.0
  0
LINE
  5
17D
330
2
100
AcDbEntity
  8
L-ZISSEN
100
AcDbLine
 10
305.0590515222807
 20
389.8620759057662
 30
0.0
 11
229.6590515222809
 21
389.8620759057662
 31
0.0
  0
LINE
  5
17E
330
2
100
AcDbEntity
  8
L-ZISSEN
100
AcDbLine
 10
221.5590515222809
 20
304.8620759057661
 30
0.0
 11
313.159051522281
 21
304.8620759057661
 31
0.0
  0
LINE
  5
17F
330
2
100
AcDbEntity
  8
L-ZISSEN
100
AcDbLine
 10
291.8590515222808
 20
294.8620759057662
 30
0.0
 11
242.8590515222807
 21
294.8620759057664
 31
0.0
  0
LINE
  5
180
330
2
100
AcDbEntity
  8
L-ZISSEN
100
AcDbLine
 10
168.5590515222808
 20
419.5620759057661
 30
0.0
 11
168.5590515222808
 21
374.8620759057658
 31
0.0
  0
LINE
  5
181
330
2
100
AcDbEntity
  8
L-ZISSEN
100
AcDbLine
 10
221.5590515222809
 20
377.8620759057662
 30
0.0
 11
221.5590515222809
 21
429.8620759057662
 31
0.0
  0
LINE
  5
182
330
2
100
AcDbEntity
  8
L-ZISSEN
100
AcDbLine
 10
179.5590515222809
 20
377.8620759057662
 30
0.0
 11
179.5590515222809
 21
429.8620759057662
 31
0.0
  0
LINE
  5
183
330
2
100
AcDbEntity
  8
L-ZISSEN
100
AcDbLine
 10
229.6590515222809
 20
377.8620759057662
 30
0.0
 11
229.6590515222809
 21
421.8620759057662
 31
0.0
  0
LINE
  5
184
330
2
100
AcDbEntity
  8
L-ZISSEN
100
AcDbLine
 10
229.6590515222809
 20
377.8620759057662
 30
0.0
 11
179.5590515222809
 21
377.8620759057661
 31
0.0
  0
LINE
  5
185
330
2
100
AcDbEntity
  8
L-ZISSEN
100
AcDbLine
 10
230.1628990995739
 20
304.8620759057661
 30
0.0
 11
212.3590515222808
 21
310.3620759057661
 31
0.0
  0
LINE
  5
186
330
2
100
AcDbEntity
  8
L-ZISSEN
100
AcDbLine
 10
221.5590515222809
 20
295.8620759057661
 30
0.0
 11
229.6590515222809
 21
295.8620759057661
 31
0.0
  0
LINE
  5
187
330
2
100
AcDbEntity
  8
L-ZISSEN
100
AcDbLine
 10
179.5590515222809
 20
294.4620759057659
 30
0.0
 11
221.5590515222809
 21
294.4620759057659
 31
0.0
  0
LINE
  5
188
330
2
100
AcDbEntity
  8
L-ZISSEN
100
AcDbLine
 10
168.5590515222785
 20
290.2620759057662
 30
0.0
 11
179.5590515222809
 21
290.2620759057662
 31
0.0
  0
CIRCLE
  5
189
330
2
100
AcDbEntity
  8
L-ZISSEN
100
AcDbCircle
 10
212.3590515222808
 20
302.8620759057661
 30
0.0
 40
3.5
  0
ARC
  5
18A
330
2
100
AcDbEntity
  8
L-ZISSEN
100
AcDbCircle
 10
212.3590515222808
 20
302.8620759057661
 30
0.0
 40
7.5
100
AcDbArc
 50
90.0
 51
240.0
  0
LINE
  5
18B
330
2
100
AcDbEntity
  8
L-TYUSIN
100
AcDbLine
 10
212.3590515222808
 20
312.8620759057661
 30
0.0
 11
212.3590515222808
 21
292.8620759057663
 31
0.0
  0
LINE
  5
18C
330
2
100
AcDbEntity
  8
L-TYUSIN
100
AcDbLine
 10
222.3590515222816
 20
302.8620759057661
 30
0.0
 11
202.3590515222816
 21
302.8620759057661
 31
0.0
  0
LINE
  5
18D
330
2
100
AcDbEntity
  8
L-ZISSEN
100
AcDbLine
 10
211.9082783058534
 20
294.4620759057655
 30
0.0
 11
208.609051522279
 21
296.3668853773798
 31
0.0
  0
LINE
  5
18E
330
2
100
AcDbEntity
  8
L-ZISSEN
100
AcDbLine
 10
167.6090515222814
 20
343.3620759057656
 30
0.0
 11
167.6090515222809
 21
374.5620759057658
 31
0.0
  0
LINE
  5
18F
330
2
100
AcDbEntity
  8
L-TYUSIN
100
AcDbLine
 10
251.3590515222808
 20
299.8620759057661
 30
0.0
 11
251.3590515222808
 21
309.8620759057661
 31
0.0
  0
LINE
  5
190
330
2
100
AcDbEntity
  8
L-ZISSEN
100
AcDbLine
 10
231.8590515222807
 20
303.8620759057661
 30
0.0
 11
242.8590515222807
 21
303.8620759057661
 31
0.0
  0
CIRCLE
  5
191
330
2
100
AcDbEntity
  8
L-ZISSEN
100
AcDbCircle
 10
237.3590515222808
 20
298.3620759057661
 30
0.0
 40
4.25
  0
LINE
  5
192
330
2
100
AcDbEntity
  8
L-ZISSEN
100
AcDbLine
 10
231.8590515222807
 20
294.8620759057664
 30
0.0
 11
229.6590515222809
 21
294.8620759057664
 31
0.0
  0
LINE
  5
193
330
2
100
AcDbEntity
  8
L-ZISSEN
100
AcDbLine
 10
231.8590515222807
 20
303.8620759057661
 30
0.0
 11
231.8590515222807
 21
294.8620759057664
 31
0.0
  0
LINE
  5
194
330
2
100
AcDbEntity
  8
L-ZISSEN
100
AcDbLine
 10
242.8590515222807
 20
303.8620759057661
 30
0.0
 11
242.8590515222807
 21
294.8620759057664
 31
0.0
  0
LINE
  5
195
330
2
100
AcDbEntity
  8
L-TYUSIN
100
AcDbLine
 10
283.3590515222809
 20
299.8620759057661
 30
0.0
 11
283.3590515222809
 21
309.8620759057661
 31
0.0
  0
LINE
  5
196
330
2
100
AcDbEntity
  8
L-ZISSEN
100
AcDbLine
 10
231.8590515222807
 20
421.8620759057662
 30
0.0
 11
221.5590515222809
 21
421.8620759057662
 31
0.0
  0
LINE
  5
197
330
2
100
AcDbEntity
  8
L-ZISSEN
100
AcDbLine
 10
204.8590515222807
 20
466.3620759057662
 30
0.0
 11
230.1628990995741
 21
466.3620759057662
 31
0.0
  0
LINE
  5
198
330
2
100
AcDbEntity
  8
L-ZISSEN
100
AcDbLine
 10
171.7590515222806
 20
387.8620759057663
 30
0.0
 11
176.959051522281
 21
387.8620759057663
 31
0.0
  0
LINE
  5
199
330
2
100
AcDbEntity
  8
L-ZISSEN
100
AcDbLine
 10
171.7590515222806
 20
387.8620759057663
 30
0.0
 11
171.7590515222806
 21
388.1620759057661
 31
0.0
  0
LINE
  5
19A
330
2
100
AcDbEntity
  8
L-TYUSIN
100
AcDbLine
 10
174.3590515222807
 20
392.8620759057663
 30
0.0
 11
174.3590515222807
 21
382.8620759057662
 31
0.0
  0
LINE
  5
19B
330
2
100
AcDbEntity
  8
L-ZISSEN
100
AcDbLine
 10
176.959051522281
 20
387.8620759057663
 30
0.0
 11
176.959051522281
 21
388.1620759057661
 31
0.0
  0
LINE
  5
19C
330
2
100
AcDbEntity
  8
L-TYUSIN
100
AcDbLine
 10
212.3590515222808
 20
471.3620759057662
 30
0.0
 11
212.3590515222808
 21
452.3620759057662
 31
0.0
  0
LINE
  5
19D
330
2
100
AcDbEntity
  8
L-ZISSEN
100
AcDbLine
 10
221.3590515222807
 20
429.8620759057662
 30
0.0
 11
221.3590515222807
 21
457.3620759057662
 31
0.0
  0
LINE
  5
19E
330
2
100
AcDbEntity
  8
L-ZISSEN
100
AcDbLine
 10
204.8590515222807
 20
466.3620759057662
 30
0.0
 11
204.8590515222807
 21
457.3620759057662
 31
0.0
  0
LINE
  5
19F
330
2
100
AcDbEntity
  8
L-ZISSEN
100
AcDbLine
 10
231.8590515222807
 20
430.8620759057661
 30
0.0
 11
231.8590515222807
 21
398.8620759057661
 31
0.0
  0
LINE
  5
1A0
330
2
100
AcDbEntity
  8
L-ZISSEN
100
AcDbLine
 10
242.8590515222807
 20
430.8620759057661
 30
0.0
 11
242.8590515222807
 21
398.8620759057661
 31
0.0
  0
LINE
  5
1A1
330
2
100
AcDbEntity
  8
L-TYUSIN
100
AcDbLine
 10
267.3590515222808
 20
384.8620759057662
 30
0.0
 11
267.3590515222808
 21
462.3620759057662
 31
0.0
  0
LINE
  5
1A2
330
2
100
AcDbEntity
  8
L-ZISSEN
100
AcDbLine
 10
233.1090515222816
 20
392.562075905766
 30
0.0
 11
241.6090515222798
 21
392.562075905766
 31
0.0
  0
LINE
  5
1A3
330
2
100
AcDbEntity
  8
L-ZISSEN
100
AcDbLine
 10
231.8590515222807
 20
398.862075905766
 30
0.0
 11
242.8590515222807
 21
398.862075905766
 31
0.0
  0
LINE
  5
1A4
330
2
100
AcDbEntity
  8
L-ZISSEN
100
AcDbLine
 10
233.1090515222816
 20
392.562075905766
 30
0.0
 11
233.1090515222816
 21
398.862075905766
 31
0.0
  0
LINE
  5
1A5
330
2
100
AcDbEntity
  8
L-ZISSEN
100
AcDbLine
 10
241.6090515222798
 20
392.562075905766
 30
0.0
 11
241.6090515222798
 21
398.862075905766
 31
0.0
  0
LINE
  5
1A6
330
2
100
AcDbEntity
  8
L-TYUSIN
100
AcDbLine
 10
241.3590515222808
 20
444.3620759057661
 30
0.0
 11
261.3590515222808
 21
444.3620759057661
 31
0.0
  0
CIRCLE
  5
1A7
330
2
100
AcDbEntity
  8
L-ZISSEN
100
AcDbCircle
 10
251.3590515222808
 20
444.3620759057661
 30
0.0
 40
5.7225
  0
LINE
  5
1A8
330
2
100
AcDbEntity
  8
L-TYUSIN
100
AcDbLine
 10
251.3590515222808
 20
434.3620759057661
 30
0.0
 11
251.3590515222808
 21
454.362075905766
 31
0.0
  0
LINE
  5
1A9
330
2
100
AcDbEntity
  8
L-ZISSEN
100
AcDbLine
 10
230.1628990995741
 20
466.3620759057662
 30
0.0
 11
230.1628990995741
 21
457.3620759057662
 31
0.0
  0
LINE
  5
1AA
330
2
100
AcDbEntity
  8
L-ZISSEN
100
AcDbLine
 10
235.3590515222808
 20
457.3620759057662
 30
0.0
 11
230.1628990995741
 21
466.3620759057662
 31
0.0
  0
LINE
  5
1AB
330
2
100
AcDbEntity
  8
L-TYUSIN
100
AcDbLine
 10
283.3590515222809
 20
434.3620759057661
 30
0.0
 11
283.3590515222809
 21
454.362075905766
 31
0.0
  0
CIRCLE
  5
1AC
330
2
100
AcDbEntity
  8
L-ZISSEN
100
AcDbCircle
 10
283.3590515222809
 20
444.3620759057661
 30
0.0
 40
5.7225
  0
LINE
  5
1AD
330
2
100
AcDbEntity
  8
L-TYUSIN
  6
CONTINUOUS
100
AcDbLine
 10
379.6340515222818
 20
338.3620759057655
 30
0.0
 11
379.6340515222818
 21
393.3409274246621
 31
0.0
  0
LINE
  5
1AE
330
2
100
AcDbEntity
  8
L-ZISSEN
100
AcDbLine
 10
394.3590515222808
 20
384.3620759057658
 30
0.0
 11
394.3590515222808
 21
374.8620759057658
 31
0.0
  0
LINE
  5
1AF
330
2
100
AcDbEntity
  8
L-ZISSEN
100
AcDbLine
 10
366.1590515222808
 20
419.5620759057661
 30
0.0
 11
366.1590515222808
 21
374.8620759057658
 31
0.0
  0
LINE
  5
1B0
330
2
100
AcDbEntity
  8
L-ZISSEN
100
AcDbLine
 10
313.1590515222808
 20
429.8620759057662
 30
0.0
 11
313.1590515222808
 21
377.8620759057662
 31
0.0
  0
LINE
  5
1B1
330
2
100
AcDbEntity
  8
L-ZISSEN
100
AcDbLine
 10
313.1590515222808
 20
429.6620759057663
 30
0.0
 11
313.1590515222808
 21
378.062075905766
 31
0.0
  0
LINE
  5
1B2
330
2
100
AcDbEntity
  8
L-ZISSEN
100
AcDbLine
 10
313.1590515222808
 20
429.8620759057662
 30
0.0
 11
313.1590515222808
 21
377.8620759057662
 31
0.0
  0
LINE
  5
1B3
330
2
100
AcDbEntity
  8
L-ZISSEN
100
AcDbLine
 10
305.0590515222808
 20
421.8620759057662
 30
0.0
 11
305.0590515222808
 21
377.8620759057662
 31
0.0
  0
LINE
  5
1B4
330
2
100
AcDbEntity
  8
L-ZISSEN
100
AcDbLine
 10
355.159051522281
 20
377.8620759057661
 30
0.0
 11
355.1590515222808
 21
429.8620759057662
 31
0.0
  0
LINE
  5
1B5
330
2
100
AcDbEntity
  8
L-ZISSEN
100
AcDbLine
 10
355.159051522281
 20
377.8620759057662
 30
0.0
 11
305.0590515222807
 21
377.8620759057662
 31
0.0
  0
LINE
  5
1B6
330
2
100
AcDbEntity
  8
L-ZISSEN
100
AcDbLine
 10
355.1590515222808
 20
294.4620759057659
 30
0.0
 11
313.1590515222808
 21
294.4620759057659
 31
0.0
  0
LINE
  5
1B7
330
2
100
AcDbEntity
  8
L-TYUSIN
100
AcDbLine
 10
312.3590515222801
 20
302.8620759057661
 30
0.0
 11
332.3590515222802
 21
302.8620759057661
 31
0.0
  0
CIRCLE
  5
1B8
330
2
100
AcDbEntity
  8
L-ZISSEN
100
AcDbCircle
 10
322.3590515222809
 20
302.8620759057661
 30
0.0
 40
3.5
  0
LINE
  5
1B9
330
2
100
AcDbEntity
  8
L-ZISSEN
100
AcDbLine
 10
304.5552039449878
 20
304.8620759057661
 30
0.0
 11
322.3590515222809
 21
310.3620759057661
 31
0.0
  0
LINE
  5
1BA
330
2
100
AcDbEntity
  8
L-ZISSEN
100
AcDbLine
 10
305.0590515222808
 20
295.8620759057661
 30
0.0
 11
313.1590515222808
 21
295.8620759057661
 31
0.0
  0
CIRCLE
  5
1BB
330
2
100
AcDbEntity
  8
L-ZISSEN
100
AcDbCircle
 10
297.3590515222809
 20
298.3620759057661
 30
0.0
 40
4.25
  0
LINE
  5
1BC
330
2
100
AcDbEntity
  8
L-ZISSEN
100
AcDbLine
 10
291.8590515222808
 20
303.8620759057661
 30
0.0
 11
302.8590515222808
 21
303.8620759057661
 31
0.0
  0
LINE
  5
1BD
330
2
100
AcDbEntity
  8
L-ZISSEN
100
AcDbLine
 10
291.8590515222808
 20
303.8620759057661
 30
0.0
 11
291.8590515222808
 21
294.8620759057664
 31
0.0
  0
LINE
  5
1BE
330
2
100
AcDbEntity
  8
L-ZISSEN
100
AcDbLine
 10
305.0590515222808
 20
294.8620759057664
 30
0.0
 11
302.8590515222808
 21
294.8620759057664
 31
0.0
  0
LINE
  5
1BF
330
2
100
AcDbEntity
  8
L-ZISSEN
100
AcDbLine
 10
302.8590515222808
 20
303.8620759057661
 30
0.0
 11
302.8590515222808
 21
294.8620759057664
 31
0.0
  0
ARC
  5
1C0
330
2
100
AcDbEntity
  8
L-ZISSEN
100
AcDbCircle
 10
322.3590515222809
 20
302.8620759057661
 30
0.0
 40
7.5
100
AcDbArc
 50
299.9999999999999
 51
90.0
  0
LINE
  5
1C1
330
2
100
AcDbEntity
  8
L-TYUSIN
100
AcDbLine
 10
322.3590515222809
 20
312.8620759057661
 30
0.0
 11
322.3590515222809
 21
292.8620759057663
 31
0.0
  0
LINE
  5
1C2
330
2
100
AcDbEntity
  8
L-ZISSEN
100
AcDbLine
 10
322.8098247387082
 20
294.4620759057655
 30
0.0
 11
326.1090515222826
 21
296.3668853773798
 31
0.0
  0
LINE
  5
1C3
330
2
100
AcDbEntity
  8
L-ZISSEN
100
AcDbLine
 10
393.1090515222809
 20
293.8620759057661
 30
0.0
 11
366.159051522283
 21
293.8620759057661
 31
0.0
  0
LINE
  5
1C4
330
2
100
AcDbEntity
  8
L-ZISSEN
100
AcDbLine
 10
393.1090515222809
 20
293.8620759057661
 30
0.0
 11
366.159051522283
 21
293.8620759057661
 31
0.0
  0
LINE
  5
1C5
330
2
100
AcDbEntity
  8
L-ZISSEN
100
AcDbLine
 10
366.159051522283
 20
290.2620759057662
 30
0.0
 11
355.1590515222808
 21
290.2620759057662
 31
0.0
  0
MTEXT
  5
1C6
330
2
100
AcDbEntity
  8
L-ZISSEN
100
AcDbMText
 10
373.1921936733056
 20
307.3466006667507
 30
0.0
 40
4.5
 41
0.0
 71
     7
 72
     1
  1
P.P
1001
ACAD
1000
MTEXTBEGIN
1070
    73
1070
     1
1070
    44
1040
1.0
1070
    74
1070
     0
1000
MTEXTEND
1000
MTEXTBEGIN
1070
    73
1070
     1
1070
    44
1040
1.0
1070
    74
1070
     0
1000
MTEXTEND
1000
MTEXTBEGIN
1070
    73
1070
     1
1070
    44
1040
1.0
1070
    74
1070
     0
1000
MTEXTEND
  0
LINE
  5
1C7
330
2
100
AcDbEntity
  8
L-ZISSEN
100
AcDbLine
 10
408.6090515222831
 20
290.0620759057662
 30
0.0
 11
393.1090515222809
 21
290.0620759057662
 31
0.0
  0
LINE
  5
1C8
330
2
100
AcDbEntity
  8
L-ZISSEN
100
AcDbLine
 10
413.3590515222834
 20
288.0120759057662
 30
0.0
 11
408.6090515222831
 21
288.0120759057662
 31
0.0
  0
LINE
  5
1C9
330
2
100
AcDbEntity
  8
L-ZISSEN
100
AcDbLine
 10
418.3590515222834
 20
288.3620759057661
 30
0.0
 11
413.3590515222831
 21
288.3620759057661
 31
0.0
  0
LINE
  5
1CA
330
2
100
AcDbEntity
  8
L-ZISSEN
100
AcDbLine
 10
393.1090515222808
 20
343.3620759057654
 30
0.0
 11
367.1090515222803
 21
343.3620759057656
 31
0.0
  0
LINE
  5
1CB
330
2
100
AcDbEntity
  8
L-ZISSEN
100
AcDbLine
 10
366.1590515222808
 20
379.3620759057658
 30
0.0
 11
394.3590515222808
 21
379.3620759057658
 31
0.0
  0
LINE
  5
1CC
330
2
100
AcDbEntity
  8
L-ZISSEN
100
AcDbLine
 10
366.1590515222808
 20
374.8620759057658
 30
0.0
 11
394.3590515222808
 21
374.8620759057658
 31
0.0
  0
LINE
  5
1CD
330
2
100
AcDbEntity
  8
L-ZISSEN
100
AcDbLine
 10
367.1090515222803
 20
343.3620759057656
 30
0.0
 11
367.1090515222808
 21
374.5620759057658
 31
0.0
  0
LINE
  5
1CE
330
2
100
AcDbEntity
  8
L-ZISSEN
100
AcDbLine
 10
418.3590515222808
 20
343.3621207911627
 30
0.0
 11
418.3590515222808
 21
365.8317310203683
 31
0.0
  0
LINE
  5
1CF
330
2
100
AcDbEntity
  8
L-ZISSEN
100
AcDbLine
 10
413.3590515222806
 20
343.3621207911627
 30
0.0
 11
413.3590515222808
 21
365.8317310203683
 31
0.0
  0
LINE
  5
1D0
330
2
100
AcDbEntity
  8
L-ZISSEN
100
AcDbLine
 10
408.6090515222803
 20
343.3620759057656
 30
0.0
 11
408.6090515222803
 21
365.7620759057657
 31
0.0
  0
LINE
  5
1D1
330
2
100
AcDbEntity
  8
L-ZISSEN
100
AcDbLine
 10
393.1090515222808
 20
343.3620759057654
 30
0.0
 11
393.1090515222808
 21
374.5620759057658
 31
0.0
  0
LINE
  5
1D2
330
2
100
AcDbEntity
  8
L-ZISSEN
100
AcDbLine
 10
393.1090515222808
 20
343.3620759057654
 30
0.0
 11
408.6090515222803
 21
343.3620759057656
 31
0.0
  0
LINE
  5
1D3
330
2
100
AcDbEntity
  8
L-ZISSEN
100
AcDbLine
 10
413.3590515222808
 20
345.4120759057658
 30
0.0
 11
408.6090515222803
 21
345.4120759057658
 31
0.0
  0
LINE
  5
1D4
330
2
100
AcDbEntity
  8
L-ZISSEN
100
AcDbLine
 10
418.3590515222808
 20
343.3621207911627
 30
0.0
 11
413.3590515222808
 21
343.3621207911627
 31
0.0
  0
LINE
  5
1D5
330
2
100
AcDbEntity
  8
L-ZISSEN
100
AcDbLine
 10
408.6090515222803
 20
365.7620759057657
 30
0.0
 11
393.1090515222808
 21
365.7620759057657
 31
0.0
  0
LINE
  5
1D6
330
2
100
AcDbEntity
  8
L-ZISSEN
100
AcDbLine
 10
413.3590515222808
 20
364.0120759057655
 30
0.0
 11
408.6090515222803
 21
364.0120759057655
 31
0.0
  0
LINE
  5
1D7
330
2
100
AcDbEntity
  8
L-ZISSEN
100
AcDbLine
 10
418.3590515222808
 20
365.8317310203683
 30
0.0
 11
413.3590515222808
 21
365.8317310203683
 31
0.0
  0
LINE
  5
1D8
330
2
100
AcDbEntity
  8
L-ZISSEN
100
AcDbLine
 10
302.8590515222808
 20
430.8620759057661
 30
0.0
 11
302.8590515222808
 21
398.8620759057661
 31
0.0
  0
LINE
  5
1D9
330
2
100
AcDbEntity
  8
L-ZISSEN
100
AcDbLine
 10
291.8590515222808
 20
430.8620759057661
 30
0.0
 11
291.8590515222808
 21
398.8620759057661
 31
0.0
  0
LINE
  5
1DA
330
2
100
AcDbEntity
  8
L-ZISSEN
100
AcDbLine
 10
301.6090515222801
 20
392.562075905766
 30
0.0
 11
293.1090515222818
 21
392.562075905766
 31
0.0
  0
LINE
  5
1DB
330
2
100
AcDbEntity
  8
L-ZISSEN
100
AcDbLine
 10
302.8590515222808
 20
398.862075905766
 30
0.0
 11
291.8590515222808
 21
398.862075905766
 31
0.0
  0
LINE
  5
1DC
330
2
100
AcDbEntity
  8
L-ZISSEN
100
AcDbLine
 10
293.1090515222818
 20
392.562075905766
 30
0.0
 11
293.1090515222818
 21
398.862075905766
 31
0.0
  0
LINE
  5
1DD
330
2
100
AcDbEntity
  8
L-ZISSEN
100
AcDbLine
 10
301.6090515222801
 20
392.562075905766
 30
0.0
 11
301.6090515222801
 21
398.862075905766
 31
0.0
  0
LINE
  5
1DE
330
2
100
AcDbEntity
  8
L-ZISSEN
100
AcDbLine
 10
313.1590515222808
 20
421.8620759057662
 30
0.0
 11
302.8590515222808
 21
421.8620759057661
 31
0.0
  0
LINE
  5
1DF
330
2
100
AcDbEntity
  8
L-ZISSEN
100
AcDbLine
 10
304.5552039449878
 20
466.3620759057662
 30
0.0
 11
329.859051522281
 21
466.3620759057662
 31
0.0
  0
LINE
  5
1E0
330
2
100
AcDbEntity
  8
L-ZISSEN
100
AcDbLine
 10
313.3590515222808
 20
429.8620759057662
 30
0.0
 11
313.3590515222808
 21
457.3620759057662
 31
0.0
  0
LINE
  5
1E1
330
2
100
AcDbEntity
  8
L-ZISSEN
100
AcDbLine
 10
299.3590515222811
 20
457.3620759057662
 30
0.0
 11
304.5552039449878
 21
466.3620759057662
 31
0.0
  0
LINE
  5
1E2
330
2
100
AcDbEntity
  8
L-ZISSEN
100
AcDbLine
 10
304.5552039449878
 20
466.3620759057662
 30
0.0
 11
304.5552039449878
 21
457.3620759057662
 31
0.0
  0
LINE
  5
1E3
330
2
100
AcDbEntity
  8
L-TYUSIN
100
AcDbLine
 10
322.3590515222809
 20
471.3620759057662
 30
0.0
 11
322.3590515222809
 21
452.3620759057662
 31
0.0
  0
LINE
  5
1E4
330
2
100
AcDbEntity
  8
L-ZISSEN
100
AcDbLine
 10
329.859051522281
 20
466.3620759057662
 30
0.0
 11
329.859051522281
 21
457.3620759057662
 31
0.0
  0
LINE
  5
1E5
330
2
100
AcDbEntity
  8
L-ZISSEN
100
AcDbLine
 10
398.3590515222808
 20
419.5620759057661
 30
0.0
 11
355.1590515222808
 21
419.5620759057661
 31
0.0
  0
LINE
  5
1E6
330
2
100
AcDbEntity
  8
L-ZISSEN
100
AcDbLine
 10
394.3590515222808
 20
384.3620759057658
 30
0.0
 11
366.1590515222808
 21
384.3620759057666
 31
0.0
  0
LINE
  5
1E7
330
2
100
AcDbEntity
  8
L-ZISSEN
100
AcDbLine
 10
398.3590515222808
 20
388.1620759057661
 30
0.0
 11
355.159051522281
 21
388.1620759057661
 31
0.0
  0
LINE
  5
1E8
330
2
100
AcDbEntity
  8
L-TYUSIN
100
AcDbLine
 10
360.3590515222808
 20
392.8620759057663
 30
0.0
 11
360.3590515222808
 21
382.8620759057662
 31
0.0
  0
LINE
  5
1E9
330
2
100
AcDbEntity
  8
L-ZISSEN
100
AcDbLine
 10
362.959051522281
 20
387.8620759057663
 30
0.0
 11
357.7590515222806
 21
387.8620759057663
 31
0.0
  0
LINE
  5
1EA
330
2
100
AcDbEntity
  8
L-ZISSEN
100
AcDbLine
 10
362.959051522281
 20
387.8620759057663
 30
0.0
 11
362.959051522281
 21
388.1620759057661
 31
0.0
  0
LINE
  5
1EB
330
2
100
AcDbEntity
  8
L-ZISSEN
100
AcDbLine
 10
357.7590515222806
 20
387.8620759057663
 30
0.0
 11
357.7590515222806
 21
388.1620759057661
 31
0.0
  0
LINE
  5
1EC
330
2
100
AcDbEntity
  8
L-ZISSEN
100
AcDbLine
 10
398.3590515222808
 20
419.5620759057661
 30
0.0
 11
398.3590515222808
 21
388.1620759057661
 31
0.0
  0
LINE
  5
1ED
330
2
100
AcDbEntity
  8
L-ZISSEN
100
AcDbLine
 10
391.8590515222808
 20
419.5620759057661
 30
0.0
 11
391.8590515222808
 21
384.3620759057658
 31
0.0
  0
LINE
  5
1EE
330
2
100
AcDbEntity
  8
L-ZISSEN
100
AcDbLine
 10
396.3590515222808
 20
419.5620759057661
 30
0.0
 11
396.3590515222808
 21
388.1620759057661
 31
0.0
  0
LINE
  5
1EF
330
2
100
AcDbEntity
  8
L-ZISSEN
100
AcDbLine
 10
398.3590515222808
 20
390.1120759057658
 30
0.0
 11
396.3590515222808
 21
390.1120759057658
 31
0.0
  0
LINE
  5
1F0
330
2
100
AcDbEntity
  8
L-ZISSEN
100
AcDbLine
 10
398.3590515222808
 20
396.3620759057658
 30
0.0
 11
396.3590515222808
 21
396.3620759057658
 31
0.0
  0
LINE
  5
1F1
330
2
100
AcDbEntity
  8
L-ZISSEN
100
AcDbLine
 10
398.3590515222808
 20
395.6120759057658
 30
0.0
 11
396.3590515222808
 21
395.6120759057658
 31
0.0
  0
TEXT
  5
1F2
330
2
100
AcDbEntity
  8
L-ZISSEN
100
AcDbText
 10
136.2641192290442
 20
501.1782504196817
 30
0.0
 40
4.5
  1
              03JY
100
AcDbText
  0
LINE
  5
1F3
330
2
100
AcDbEntity
  8
L-TYUSIN
100
AcDbLine
 10
577.4408229243797
 20
450.002414448607
 30
0.0
 11
577.4408229243797
 21
223.9870893380962
 31
0.0
  0
LINE
  5
1F4
330
2
100
AcDbEntity
  8
L-TYUSIN
100
AcDbLine
 10
498.4545612242832
 20
86.36207590576622
 30
0.0
 11
498.4545612242832
 21
105.3620759057662
 31
0.0
  0
LINE
  5
1F5
330
2
100
AcDbEntity
  8
L-TYUSIN
100
AcDbLine
 10
450.4545612242832
 20
86.36207590576622
 30
0.0
 11
450.4545612242832
 21
105.3620759057662
 31
0.0
  0
LINE
  5
1F6
330
2
100
AcDbEntity
  8
L-ZISSEN
100
AcDbLine
 10
488.2045612242833
 20
214.062075905766
 30
0.0
 11
488.2045612242832
 21
182.8620759057665
 31
0.0
  0
LINE
  5
1F7
330
2
100
AcDbEntity
  8
L-ZISSEN
100
AcDbLine
 10
460.7045612242831
 20
214.062075905766
 30
0.0
 11
460.7045612242832
 21
182.8620759057665
 31
0.0
  0
LINE
  5
1F8
330
2
100
AcDbEntity
  8
L-TYUSIN
100
AcDbLine
 10
474.4545612242832
 20
140.5620759057661
 30
0.0
 11
474.4545612242832
 21
221.4620759057658
 31
0.0
  0
LINE
  5
1F9
330
2
100
AcDbEntity
  8
L-TYUSIN
100
AcDbLine
 10
474.4545612242832
 20
95.36207590576623
 30
0.0
 11
474.4545612242832
 21
218.5620759057661
 31
0.0
  0
LINE
  5
1FA
330
2
100
AcDbEntity
  8
L-ZISSEN
100
AcDbLine
 10
489.4545612242835
 20
173.3620759057661
 30
0.0
 11
485.8545612242833
 21
169.5620759057665
 31
0.0
  0
LINE
  5
1FB
330
2
100
AcDbEntity
  8
L-TYUSIN
100
AcDbLine
 10
462.2045612242832
 20
158.7620759057659
 30
0.0
 11
486.7045612242836
 21
158.7620759057659
 31
0.0
  0
LINE
  5
1FC
330
2
100
AcDbEntity
  8
L-ZISSEN
100
AcDbLine
 10
489.4545612242832
 20
182.8620759057665
 30
0.0
 11
459.4545612242832
 21
182.8620759057665
 31
0.0
  0
LINE
  5
1FD
330
2
100
AcDbEntity
  8
L-ZISSEN
100
AcDbLine
 10
489.4545612242832
 20
178.3620759057661
 30
0.0
 11
459.4545612242832
 21
178.3620759057661
 31
0.0
  0
LINE
  5
1FE
330
2
100
AcDbEntity
  8
L-ZISSEN
100
AcDbLine
 10
489.4545612242835
 20
173.3620759057661
 30
0.0
 11
459.4545612242832
 21
173.3620759057665
 31
0.0
  0
LINE
  5
1FF
330
2
100
AcDbEntity
  8
L-ZISSEN
100
AcDbLine
 10
448.4545612242832
 20
126.8620759057662
 30
0.0
 11
500.4545612242832
 21
126.8620759057662
 31
0.0
  0
LINE
  5
200
330
2
100
AcDbEntity
  8
L-ZISSEN
100
AcDbLine
 10
449.4545612242832
 20
127.8620759057662
 30
0.0
 11
499.4545612242832
 21
127.8620759057662
 31
0.0
  0
LINE
  5
201
330
2
100
AcDbEntity
  8
L-ZISSEN
100
AcDbLine
 10
458.8545612242833
 20
132.1620759057664
 30
0.0
 11
490.0545612242831
 21
132.1620759057664
 31
0.0
  0
LINE
  5
202
330
2
100
AcDbEntity
  8
L-ZISSEN
100
AcDbLine
 10
442.9545612242832
 20
100.3620759057662
 30
0.0
 11
505.9545612242832
 21
100.3620759057662
 31
0.0
  0
LINE
  5
203
330
2
100
AcDbEntity
  8
L-ZISSEN
100
AcDbLine
 10
484.4846789026834
 20
91.36207590576622
 30
0.0
 11
505.9545612242832
 21
91.36207590576622
 31
0.0
  0
LINE
  5
204
330
2
100
AcDbEntity
  8
L-ZISSEN
100
AcDbLine
 10
458.8545612242833
 20
126.8620759057662
 30
0.0
 11
458.8545612242833
 21
174.7620759057662
 31
0.0
  0
LINE
  5
205
330
2
100
AcDbEntity
  8
L-ZISSEN
100
AcDbLine
 10
449.4545612242832
 20
126.8620759057662
 30
0.0
 11
449.4545612242832
 21
158.8620759057661
 31
0.0
  0
LINE
  5
206
330
2
100
AcDbEntity
  8
L-TYUSIN
100
AcDbLine
 10
453.4545612242832
 20
113.3620759057662
 30
0.0
 11
443.4545612242832
 21
113.3620759057662
 31
0.0
  0
LINE
  5
207
330
2
100
AcDbEntity
  8
L-ZISSEN
100
AcDbLine
 10
442.9545612242832
 20
91.36207590576622
 30
0.0
 11
464.4244435458831
 21
91.36207590576622
 31
0.0
  0
LINE
  5
208
330
2
100
AcDbEntity
  8
L-ZISSEN
100
AcDbLine
 10
448.4545612242832
 20
126.8620759057662
 30
0.0
 11
448.4545612242832
 21
100.3620759057662
 31
0.0
  0
LINE
  5
209
330
2
100
AcDbEntity
  8
L-ZISSEN
100
AcDbLine
 10
442.9545612242832
 20
100.3620759057662
 30
0.0
 11
442.9545612242832
 21
91.36207590576622
 31
0.0
  0
LINE
  5
20A
330
2
100
AcDbEntity
  8
L-ZISSEN
100
AcDbLine
 10
464.4244435458831
 20
100.3620759057662
 30
0.0
 11
464.4244435458831
 21
91.36207590576622
 31
0.0
  0
LINE
  5
20B
330
2
100
AcDbEntity
  8
L-ZISSEN
100
AcDbLine
 10
484.4846789026834
 20
100.3620759057662
 30
0.0
 11
484.4846789026834
 21
91.36207590576622
 31
0.0
  0
LINE
  5
20C
330
2
100
AcDbEntity
  8
L-ZISSEN
100
AcDbLine
 10
450.7045612242841
 20
165.1620759057663
 30
0.0
 11
458.8545612242833
 21
165.162075905766
 31
0.0
  0
LINE
  5
20D
330
2
100
AcDbEntity
  8
L-ZISSEN
100
AcDbLine
 10
449.4545612242832
 20
158.8620759057661
 30
0.0
 11
458.8545612242833
 21
158.8620759057661
 31
0.0
  0
LINE
  5
20E
330
2
100
AcDbEntity
  8
L-ZISSEN
100
AcDbLine
 10
450.7045612242841
 20
165.1620759057663
 30
0.0
 11
450.7045612242841
 21
158.8620759057661
 31
0.0
  0
LINE
  5
20F
330
2
100
AcDbEntity
  8
L-ZISSEN
100
AcDbLine
 10
485.8545612242833
 20
138.1620759057664
 30
0.0
 11
485.8545612242833
 21
169.7620759057658
 31
0.0
  0
LINE
  5
210
330
2
100
AcDbEntity
  8
L-ZISSEN
100
AcDbLine
 10
463.0545612242835
 20
138.1620759057664
 30
0.0
 11
463.0545612242835
 21
169.7620759057667
 31
0.0
  0
LINE
  5
211
330
2
100
AcDbEntity
  8
L-ZISSEN
100
AcDbLine
 10
485.8545612242833
 20
138.1620759057664
 30
0.0
 11
463.0545612242835
 21
138.1620759057664
 31
0.0
  0
LINE
  5
212
330
2
100
AcDbEntity
  8
L-ZISSEN
100
AcDbLine
 10
485.8545612242833
 20
146.8620759057661
 30
0.0
 11
478.4545612242836
 21
146.8620759057661
 31
0.0
  0
LINE
  5
213
330
2
100
AcDbEntity
  8
L-ZISSEN
100
AcDbLine
 10
478.4545612242836
 20
146.8620759057661
 30
0.0
 11
478.4545612242836
 21
138.1620759057664
 31
0.0
  0
CIRCLE
  5
214
330
2
100
AcDbEntity
  8
L-ZISSEN
100
AcDbCircle
 10
481.4545612242836
 20
143.3620759057661
 30
0.0
 40
2.75
  0
LINE
  5
215
330
2
100
AcDbEntity
  8
L-ZISSEN
100
AcDbLine
 10
463.0545612242835
 20
160.8020759057661
 30
0.0
 11
470.4545612242831
 21
160.8020759057661
 31
0.0
  0
LINE
  5
216
330
2
100
AcDbEntity
  8
L-ZISSEN
100
AcDbLine
 10
485.8545612242833
 20
169.5620759057665
 30
0.0
 11
463.0545612242835
 21
169.5620759057665
 31
0.0
  0
CIRCLE
  5
217
330
2
100
AcDbEntity
  8
L-ZISSEN
100
AcDbCircle
 10
467.4545612242832
 20
164.3020759057661
 30
0.0
 40
2.75
  0
LINE
  5
218
330
2
100
AcDbEntity
  8
L-ZISSEN
100
AcDbLine
 10
459.4545612242832
 20
173.3620759057665
 30
0.0
 11
463.0545612242835
 21
169.7620759057667
 31
0.0
  0
LINE
  5
219
330
2
100
AcDbEntity
  8
L-ZISSEN
100
AcDbLine
 10
458.8545612242833
 20
174.7620759057662
 30
0.0
 11
459.4545612242832
 21
174.7620759057662
 31
0.0
  0
LINE
  5
21A
330
2
100
AcDbEntity
  8
L-ZISSEN
100
AcDbLine
 10
459.4545612242832
 20
182.8620759057665
 30
0.0
 11
459.4545612242832
 21
173.3620759057665
 31
0.0
  0
LINE
  5
21B
330
2
100
AcDbEntity
  8
L-ZISSEN
100
AcDbLine
 10
470.4545612242831
 20
160.8020759057661
 30
0.0
 11
470.4545612242831
 21
169.5620759057665
 31
0.0
  0
LINE
  5
21C
330
2
100
AcDbEntity
  8
L-ZISSEN
100
AcDbLine
 10
490.0545612242831
 20
174.7620759057662
 30
0.0
 11
490.0545612242833
 21
126.8620759057662
 31
0.0
  0
LINE
  5
21D
330
2
100
AcDbEntity
  8
L-ZISSEN
100
AcDbLine
 10
499.4545612242832
 20
126.8620759057662
 30
0.0
 11
499.4545612242832
 21
158.8620759057661
 31
0.0
  0
LINE
  5
21E
330
2
100
AcDbEntity
  8
L-ZISSEN
100
AcDbLine
 10
500.4545612242832
 20
100.3620759057662
 30
0.0
 11
500.4545612242832
 21
126.8620759057662
 31
0.0
  0
LINE
  5
21F
330
2
100
AcDbEntity
  8
L-ZISSEN
100
AcDbLine
 10
505.9545612242832
 20
100.3620759057662
 30
0.0
 11
505.9545612242832
 21
91.36207590576622
 31
0.0
  0
LINE
  5
220
330
2
100
AcDbEntity
  8
L-TYUSIN
100
AcDbLine
 10
495.4545612242831
 20
113.3620759057662
 30
0.0
 11
505.4545612242832
 21
113.3620759057662
 31
0.0
  0
LINE
  5
221
330
2
100
AcDbEntity
  8
L-ZISSEN
100
AcDbLine
 10
498.2045612242821
 20
165.1620759057663
 30
0.0
 11
498.2045612242821
 21
158.8620759057661
 31
0.0
  0
LINE
  5
222
330
2
100
AcDbEntity
  8
L-ZISSEN
100
AcDbLine
 10
499.4545612242832
 20
158.8620759057661
 30
0.0
 11
490.0545612242831
 21
158.8620759057661
 31
0.0
  0
LINE
  5
223
330
2
100
AcDbEntity
  8
L-ZISSEN
100
AcDbLine
 10
498.2045612242821
 20
165.1620759057663
 30
0.0
 11
490.0545612242831
 21
165.162075905766
 31
0.0
  0
LINE
  5
224
330
2
100
AcDbEntity
  8
L-ZISSEN
100
AcDbLine
 10
489.4545612242835
 20
174.7620759057662
 30
0.0
 11
490.0545612242831
 21
174.7620759057662
 31
0.0
  0
LINE
  5
225
330
2
100
AcDbEntity
  8
L-ZISSEN
100
AcDbLine
 10
489.4545612242832
 20
182.8620759057665
 30
0.0
 11
489.4545612242835
 21
173.3620759057661
 31
0.0
  0
LINE
  5
226
330
2
100
AcDbEntity
  8
L-TYUSIN
  6
CONTINUOUS
100
AcDbLine
 10
455.7045612242832
 20
202.8620759057661
 30
0.0
 11
493.2045612242832
 21
202.8620759057661
 31
0.0
  0
LINE
  5
227
330
2
100
AcDbEntity
  8
L-ZISSEN
100
AcDbLine
 10
460.7045612242831
 20
214.062075905766
 30
0.0
 11
488.2045612242833
 21
214.062075905766
 31
0.0
  0
CIRCLE
  5
228
330
2
100
AcDbEntity
  8
L-ZISSEN
100
AcDbCircle
 10
474.4545612242832
 20
202.8620759057661
 30
0.0
 40
11.19999999999998
  0
CIRCLE
  5
229
330
2
100
AcDbEntity
  8
L-ZISSEN
100
AcDbCircle
 10
474.4545612242832
 20
202.8620759057661
 30
0.0
 40
6.5
  0
LEADER
  5
22A
330
2
100
AcDbEntity
  8
L-ZISSEN
100
AcDbLeader
  3
STANDARD
 73
     0
 74
     0
 40
5.599999999999998
 41
9.599999999999996
 76
     3
 10
649.0989810697024
 20
258.9906965463188
 30
0.0
 10
657.2996495079793
 20
236.001998705248
 30
0.0
 10
659.6266948462047
 20
236.001998705248
 30
0.0
1001
ACAD
1000
DSTYLE
1002
{
1070
     5
1000

1070
    40
1040
2.0
1070
    41
1040
2.0
1070
    42
1040
2.0
1070
    44
1040
2.0
1070
    46
1040
1.0
1070
    73
1070
     0
1070
    74
1070
     0
1070
    77
1070
     1
1070
   140
1040
2.799999999999998
1070
   147
1040
1.0
1070
   172
1070
     1
1070
   174
1070
     1
1070
   271
1070
     1
1070
   287
1070
     5
1070
   342
1005
0
1002
}
1000
LEANOF
1010
0.0
1020
0.0
1030
0.0
1000
LEANOF
1010
0.0
1020
0.0
1030
0.0
  0
LINE
  5
22B
330
2
100
AcDbEntity
  8
L-ZISSEN
100
AcDbLine
 10
649.4989810697022
 20
272.2906965463188
 30
0.0
 11
652.0989810697024
 21
272.2906965463188
 31
0.0
  0
LINE
  5
22C
330
2
100
AcDbEntity
  8
L-TYUSIN
100
AcDbLine
 10
649.0989810697024
 20
253.9906965463188
 30
0.0
 11
649.0989810697024
 21
277.2906965463188
 31
0.0
  0
LINE
  5
22D
330
2
100
AcDbEntity
  8
L-ZISSEN
100
AcDbLine
 10
646.0989810697022
 20
272.2906965463188
 30
0.0
 11
646.0989810697022
 21
258.9906965463188
 31
0.0
  0
LINE
  5
22E
330
2
100
AcDbEntity
  8
L-ZISSEN
100
AcDbLine
 10
648.6989810697024
 20
270.2906965463188
 30
0.0
 11
648.6989810697024
 21
272.2906965463188
 31
0.0
  0
LINE
  5
22F
330
2
100
AcDbEntity
  8
L-ZISSEN
100
AcDbLine
 10
649.4989810697022
 20
270.2906965463188
 30
0.0
 11
648.6989810697024
 21
270.2906965463188
 31
0.0
  0
LINE
  5
230
330
2
100
AcDbEntity
  8
L-ZISSEN
100
AcDbLine
 10
649.4989810697022
 20
272.2906965463188
 30
0.0
 11
649.4989810697022
 21
270.2906965463188
 31
0.0
  0
LINE
  5
231
330
2
100
AcDbEntity
  8
L-ZISSEN
100
AcDbLine
 10
646.0989810697022
 20
272.2906965463188
 30
0.0
 11
648.6989810697024
 21
272.2906965463188
 31
0.0
  0
MTEXT
  5
232
330
2
100
AcDbEntity
  8
L-ZISSEN
100
AcDbMText
 10
661.6561178371663
 20
238.001998705248
 30
0.0
 40
4.5
 41
0.0
 71
     7
 72
     1
  1
P.P
1001
ACAD
1000
MTEXTBEGIN
1070
    73
1070
     1
1070
    44
1040
1.0
1070
    74
1070
     0
1000
MTEXTEND
1000
MTEXTBEGIN
1070
    73
1070
     1
1070
    44
1040
1.0
1070
    74
1070
     0
1000
MTEXTEND
1000
MTEXTBEGIN
1070
    73
1070
     1
1070
    44
1040
1.0
1070
    74
1070
     0
1000
MTEXTEND
  0
LINE
  5
233
330
2
100
AcDbEntity
  8
L-ZISSEN
100
AcDbLine
 10
652.0989810697024
 20
272.2906965463188
 30
0.0
 11
652.0989810697024
 21
258.9906965463188
 31
0.0
  0
TEXT
  5
234
330
2
100
AcDbEntity
  8
L-ZISSEN
100
AcDbText
 10
587.4408229243797
 20
341.4933161726211
 30
0.0
 40
4.5
  1
MODEL No. :  MVD-492-0*Y****R*
100
AcDbText
  0
TEXT
  5
235
330
2
100
AcDbEntity
  8
L-ZISSEN
100
AcDbText
 10
587.4408229243797
 20
351.4933161726212
 30
0.0
 40
4.5
  1
LOCK TYPE MANUAL OPERATION BUTTON
100
AcDbText
  0
TEXT
  5
236
330
2
100
AcDbEntity
  8
L-ZISSEN
100
AcDbText
 10
674.4288742595625
 20
388.0961980808667
 30
0.0
 40
4.5
  1
P.P
100
AcDbText
  0
TEXT
  5
237
330
2
100
AcDbEntity
  8
L-ZISSEN
100
AcDbText
 10
590.2125329027792
 20
430.9351103349593
 30
0.0
 40
4.5
  1
MODEL No. :  MVD-492-0*Y**P**
100
AcDbText
  0
TEXT
  5
238
330
2
100
AcDbEntity
  8
L-ZISSEN
100
AcDbText
 10
590.2467725783901
 20
439.9252984669763
 30
0.0
 40
4.5
  1
EXTERNAL PILOT AIR SUPPLY
100
AcDbText
  0
LINE
  5
239
330
2
100
AcDbEntity
  8
L-TYUSIN
100
AcDbLine
 10
577.4408229243797
 20
366.4933161726211
 30
0.0
 11
794.9850702592128
 21
366.4933161726211
 31
0.0
  0
TEXT
  5
23A
330
2
100
AcDbEntity
  8
L-ZISSEN
100
AcDbText
 10
587.4408229243797
 20
341.4933161726211
 30
0.0
 40
4.5
  1
MODEL No. :
100
AcDbText
  0
LEADER
  5
23B
330
2
100
AcDbEntity
  8
L-ZISSEN
100
AcDbLeader
  3
STANDARD
 73
     0
 74
     0
 40
5.599999999999998
 41
9.599999999999996
 76
     3
 10
649.0989810697024
 20
290.2326208748391
 30
0.0
 10
657.2996495079793
 20
317.3470140613216
 30
0.0
 10
659.6266948462047
 20
317.3470140613216
 30
0.0
210
0.0
220
0.0
230
-1.0
1001
ACAD
1000
DSTYLE
1002
{
1070
     5
1000

1070
    40
1040
2.0
1070
    41
1040
2.0
1070
    42
1040
2.0
1070
    44
1040
2.0
1070
    46
1040
1.0
1070
    73
1070
     0
1070
    74
1070
     0
1070
    77
1070
     1
1070
   140
1040
2.799999999999998
1070
   147
1040
1.0
1070
   172
1070
     1
1070
   174
1070
     1
1070
   271
1070
     1
1070
   287
1070
     5
1070
   342
1005
0
1002
}
1000
LEANOF
1010
0.0
1020
0.0
1030
0.0
1000
LEANOF
1010
0.0
1020
0.0
1030
0.0
  0
CIRCLE
  5
23C
330
2
100
AcDbEntity
  8
L-ZISSEN
100
AcDbCircle
 10
649.0989810697024
 20
290.2326208748391
 30
0.0
 40
3.0
  0
LINE
  5
23D
330
2
100
AcDbEntity
  8
L-TYUSIN
100
AcDbLine
 10
649.0989810697024
 20
298.23262087484
 30
0.0
 11
649.0989810697024
 21
282.2326208748388
 31
0.0
  0
LINE
  5
23E
330
2
100
AcDbEntity
  8
L-ZISSEN
100
AcDbLine
 10
649.4989810697022
 20
293.2058346243028
 30
0.0
 11
649.4989810697022
 21
287.2594071253755
 31
0.0
  0
LINE
  5
23F
330
2
100
AcDbEntity
  8
L-ZISSEN
100
AcDbLine
 10
648.6989810697025
 20
287.2594071253755
 30
0.0
 11
648.6989810697024
 21
293.2058346243028
 31
0.0
  0
MTEXT
  5
240
330
2
100
AcDbEntity
  8
L-ZISSEN
100
AcDbMText
 10
661.932123220725
 20
318.7171456358238
 30
0.0
 40
4.5
 41
0.0
 71
     7
 72
     1
  1
P.P
1001
ACAD
1000
MTEXTBEGIN
1070
    73
1070
     1
1070
    44
1040
1.0
1070
    74
1070
     0
1000
MTEXTEND
1000
MTEXTBEGIN
1070
    73
1070
     1
1070
    44
1040
1.0
1070
    74
1070
     0
1000
MTEXTEND
1000
MTEXTBEGIN
1070
    73
1070
     1
1070
    44
1040
1.0
1070
    74
1070
     0
1000
MTEXTEND
  0
CIRCLE
  5
241
330
2
100
AcDbEntity
  8
L-ZISSEN
100
AcDbCircle
 10
655.4288742595628
 20
400.3461980808666
 30
0.0
 40
4.283
  0
LINE
  5
242
330
2
100
AcDbEntity
  8
L-TYUSIN
100
AcDbLine
 10
655.4288742595628
 20
408.3461980808674
 30
0.0
 11
655.4288742595628
 21
392.3461980808665
 31
0.0
  0
LINE
  5
243
330
2
100
AcDbEntity
  8
L-ZISSEN
100
AcDbLine
 10
657.0929748482382
 20
399.2367976884163
 30
0.0
 11
670.4288742595625
 21
390.3461980808667
 31
0.0
  0
SOLID
  5
244
330
2
100
AcDbEntity
  8
L-ZISSEN
100
AcDbTrace
 10
656.90807478283
 20
398.9594475903036
 30
0.0
 11
657.2778749136467
 21
399.5141477865288
 31
0.0
 12
655.4288742595628
 22
400.3461980808666
 32
0.0
 13
655.4288742595628
 23
400.3461980808666
 33
0.0
  0
LINE
  5
245
330
2
100
AcDbEntity
  8
L-ZISSEN
100
AcDbLine
 10
670.4288742595625
 20
390.3461980808665
 30
0.0
 11
672.4288742595628
 21
390.3461980808665
 31
0.0
  0
ENDSEC
  0
SECTION
  2
OBJECTS
  0
DICTIONARY
  5
8
330
0
100
AcDbDictionary
  3
ACAD_GROUP
350
21
  3
ACAD_LAYOUT
350
D
  3
ACAD_MLINESTYLE
350
22
  3
ACAD_PLOTSETTINGS
350
23
1001
ACAD
1000
TREAT_AS_HARD
1070
     0
1000
TREAT_AS_HARD
1070
     0
  0
DICTIONARY
  5
3
330
2
100
AcDbDictionary
  3
ACAD_LAYOUTSELFREF
350
259
1001
ACAD
1000
TREAT_AS_HARD
1070
     1
1000
TREAT_AS_HARD
1070
     0
  0
DICTIONARY
  5
F
330
E
100
AcDbDictionary
  3
ACAD_LAYOUTSELFREF
350
25A
1001
ACAD
1000
TREAT_AS_HARD
1070
     1
1000
TREAT_AS_HARD
1070
     0
  0
DICTIONARY
  5
21
102
{ACAD_REACTORS
330
8
102
}
330
8
100
AcDbDictionary
1001
ACAD
1000
TREAT_AS_HARD
1070
     0
1000
TREAT_AS_HARD
1070
     0
  0
DICTIONARY
  5
D
102
{ACAD_REACTORS
330
8
102
}
330
8
100
AcDbDictionary
1001
ACAD
1000
TREAT_AS_HARD
1070
     0
1000
TREAT_AS_HARD
1070
     0
  0
DICTIONARY
  5
22
102
{ACAD_REACTORS
330
8
102
}
330
8
100
AcDbDictionary
  3
STANDARD
350
26
1001
ACAD
1000
TREAT_AS_HARD
1070
     0
1000
TREAT_AS_HARD
1070
     0
  0
DICTIONARY
  5
23
102
{ACAD_REACTORS
330
8
102
}
330
8
100
AcDbDictionary
1001
ACAD
1000
TREAT_AS_HARD
1070
     0
1000
TREAT_AS_HARD
1070
     0
  0
XRECORD
  5
259
102
{ACAD_REACTORS
330
3
102
}
330
3
100
AcDbXrecord
340
2
  0
XRECORD
  5
25A
102
{ACAD_REACTORS
330
F
102
}
330
F
100
AcDbXrecord
340
E
  0
MLINESTYLE
  5
26
102
{ACAD_REACTORS
330
22
102
}
330
22
100
AcDbMlineStyle
  2
STANDARD
 70
     0
  3

 62
   256
 51
90.0
 52
90.0
 71
     2
 49
0.5
 62
   256
  6
BYLAYER
 49
-0.5
 62
   256
  6
BYLAYER
  0
ENDSEC
  0
EOF
