  0
SECTION
  2
HEADER
  9
$ACADVER
  1
AC1006
  9
$INSBASE
 10
0.0
 20
0.0
 30
0.0
  9
$EXTMIN
 10
45.0
 20
29.0
  9
$EXTMAX
 10
520.0
 20
478.5
  9
$LIMMIN
 10
0.0
 20
0.0
  9
$LIMMAX
 10
841.0
 20
594.0
  9
$ORTHOMODE
 70
     0
  9
$REGENMODE
 70
     1
  9
$FILLMODE
 70
     1
  9
$QTEXTMODE
 70
     0
  9
$MIRRTEXT
 70
     1
  9
$DRAGMODE
 70
     2
  9
$LTSCALE
 40
1.0
  9
$OSMODE
 70
     0
  9
$ATTMODE
 70
     1
  9
$TEXTSIZE
 40
4.5
  9
$TRACEWID
 40
0.05
  9
$TEXTSTYLE
  7
STANDARD
  9
$CLAYER
  8
L-ZISSEN
  9
$CELTYPE
  6
BYLAYER
  9
$CECOLOR
 62
   256
  9
$DIMSCALE
 40
1.0
  9
$DIMASZ
 40
2.0
  9
$DIMEXO
 40
1.0
  9
$DIMDLI
 40
0.38
  9
$DIMRND
 40
0.0
  9
$DIMDLE
 40
1.0
  9
$DIMEXE
 40
1.0
  9
$DIMTP
 40
0.0
  9
$DIMTM
 40
0.0
  9
$DIMTXT
 40
4.5
  9
$DIMCEN
 40
0.09
  9
$DIMTSZ
 40
0.0
  9
$DIMTOL
 70
     0
  9
$DIMLIM
 70
     0
  9
$DIMTIH
 70
     0
  9
$DIMTOH
 70
     0
  9
$DIMSE1
 70
     0
  9
$DIMSE2
 70
     0
  9
$DIMTAD
 70
     1
  9
$DIMZIN
 70
     0
  9
$DIMBLK
  1

  9
$DIMASO
 70
     0
  9
$DIMSHO
 70
     0
  9
$DIMPOST
  1

  9
$DIMAPOST
  1

  9
$DIMALT
 70
     0
  9
$DIMALTD
 70
     2
  9
$DIMALTF
 40
25.4
  9
$DIMLFAC
 40
1.0
  9
$DIMTOFL
 70
     1
  9
$DIMTVP
 40
0.0
  9
$DIMTIX
 70
     1
  9
$DIMSOXD
 70
     0
  9
$DIMSAH
 70
     0
  9
$DIMBLK1
  1

  9
$DIMBLK2
  1

  9
$LUNITS
 70
     2
  9
$LUPREC
 70
     4
  9
$AXISMODE
 70
     0
  9
$AXISUNIT
 10
0.0
 20
0.0
  9
$SKETCHINC
 40
0.1
  9
$FILLETRAD
 40
0.0
  9
$AUNITS
 70
     0
  9
$AUPREC
 70
     0
  9
$MENU
  1
acad
  9
$ELEVATION
 40
0.0
  9
$THICKNESS
 40
0.0
  9
$LIMCHECK
 70
     0
  9
$BLIPMODE
 70
     1
  9
$CHAMFERA
 40
0.0
  9
$CHAMFERB
 40
0.0
  9
$SKPOLY
 70
     0
  9
$TDCREATE
 40
2449251.3104872685
  9
$TDUPDATE
 40
2449251.3104872685
  9
$TDINDWG
 40
0.0000000000
  9
$TDUSRTIMER
 40
0.0000000000
  9
$USRTIMER
 70
     1
  9
$ANGBASE
 50
0.0
  9
$ANGDIR
 70
     0
  9
$PDMODE
 70
     0
  9
$PDSIZE
 40
0.0
  9
$PLINEWID
 40
0.0
  9
$COORDS
 70
     2
  9
$SPLFRAME
 70
     0
  9
$SPLINETYPE
 70
     6
  9
$SPLINESEGS
 70
     8
  9
$ATTDIA
 70
     0
  9
$ATTREQ
 70
     1
  9
$HANDLING
 70
     0
  9
$HANDSEED
  5
0
  9
$SURFTAB1
 70
     6
  9
$SURFTAB2
 70
     6
  9
$SURFTYPE
 70
     6
  9
$SURFU
 70
     6
  9
$SURFV
 70
     6
  9
$FLATLAND
 70
     0
  9
$UCSNAME
  2

  9
$UCSORG
 10
0.0
 20
0.0
 30
0.0
  9
$UCSXDIR
 10
1.0
 20
0.0
 30
0.0
  9
$UCSYDIR
 10
0.0
 20
1.0
 30
0.0
  9
$USERI1
 70
     0
  9
$USERI2
 70
     0
  9
$USERI3
 70
     0
  9
$USERI4
 70
     0
  9
$USERI5
 70
     0
  9
$USERR1
 40
0.0
  9
$USERR2
 40
0.0
  9
$USERR3
 40
0.0
  9
$USERR4
 40
0.0
  9
$USERR5
 40
0.0
  9
$WORLDVIEW
 70
     1
  0
ENDSEC
  0
SECTION
  2
TABLES
  0
TABLE
  2
VPORT
 70
     2
  0
VPORT
  2
*ACTIVE
 70
     0
 10
0.0
 20
0.0
 11
1.0
 21
1.0
 12
476.455978
 22
307.649038
 13
0.0
 23
0.0
 14
5.0
 24
5.0
 15
0.0
 25
0.0
 16
0.0
 26
0.0
 36
1.0
 17
0.0
 27
0.0
 37
0.0
 40
615.298075
 41
1.5487
 42
50.0
 43
0.0
 44
0.0
 50
0.0
 51
0.0
 71
     0
 72
   100
 73
     1
 74
     0
 75
     0
 76
     0
 77
     0
 78
     0
  0
ENDTAB
  0
TABLE
  2
LTYPE
 70
     2
  0
LTYPE
  2
CONTINUOUS
 70
    64
  3
Solid line
 72
    65
 73
     0
 40
0.0
  0
LTYPE
  2
CENTER
 70
    64
  3
____ _ ____ _ ____ _ ____ _ 
 72
    65
 73
     4
 40
60.0
 49
45.0
 49
-5.0
 49
5.0
 49
-5.0
  0
ENDTAB
  0
TABLE
  2
LAYER
 70
     3
  0
LAYER
  2
0
 70
     0
 62
     7
  6
CONTINUOUS
  0
LAYER
  2
L-ZISSEN
 70
    64
 62
     7
  6
CONTINUOUS
  0
LAYER
  2
L-TYUSIN
 70
    64
 62
     1
  6
CENTER
  0
ENDTAB
  0
TABLE
  2
STYLE
 70
     1
  0
STYLE
  2
STANDARD
 70
    64
 40
0.0
 41
1.0
 50
0.0
 71
     0
 42
4.5
  3
TXT
  4

  0
ENDTAB
  0
TABLE
  2
VIEW
 70
     0
  0
ENDTAB
  0
TABLE
  2
UCS
 70
     0
  0
ENDTAB
  0
TABLE
  2
DWGMGR
 70
     0
  0
ENDTAB
  0
ENDSEC
  0
SECTION
  2
BLOCKS
  0
ENDSEC
  0
SECTION
  2
ENTITIES
  0
LINE
  8
L-TYUSIN
  6
CENTER
 62
     1
 10
86.5
 20
254.0
 30
0.0
 11
60.5
 21
254.0
 31
0.0
  0
LINE
  8
L-ZISSEN
 10
78.000001
 20
249.5
 30
0.0
 11
69.0
 21
249.5
 31
0.0
  0
LINE
  8
L-ZISSEN
 10
78.0
 20
258.5
 30
0.0
 11
69.000001
 21
258.5
 31
0.0
  0
ARC
  8
L-ZISSEN
 10
69.0
 20
254.0
 30
0.0
 40
4.5
 50
89.999983
 51
270.000016
  0
ARC
  8
L-ZISSEN
 10
78.0
 20
254.0
 30
0.0
 40
4.5
 50
270.000007
 51
89.99999
  0
ARC
  8
L-ZISSEN
 10
182.0
 20
254.0
 30
0.0
 40
4.5
 50
90.0
 51
270.000014
  0
ARC
  8
L-ZISSEN
 10
191.0
 20
254.0
 30
0.0
 40
4.5
 50
270.000021
 51
90.0
  0
LINE
  8
L-ZISSEN
 10
191.000002
 20
249.5
 30
0.0
 11
182.000001
 21
249.5
 31
0.0
  0
LINE
  8
L-ZISSEN
 10
191.0
 20
258.5
 30
0.0
 11
182.0
 21
258.5
 31
0.0
  0
LINE
  8
L-TYUSIN
  6
CENTER
 62
     1
 10
73.5
 20
262.5
 30
0.0
 11
73.5
 21
245.5
 31
0.0
  0
LINE
  8
L-TYUSIN
  6
CENTER
 62
     1
 10
186.5
 20
262.5
 30
0.0
 11
186.5
 21
245.5
 31
0.0
  0
LINE
  8
L-TYUSIN
  6
CENTER
 62
     1
 10
348.8
 20
254.0
 30
0.0
 11
360.0
 21
254.0
 31
0.0
  0
LINE
  8
L-ZISSEN
 10
333.0
 20
242.0
 30
0.0
 11
356.0
 21
242.0
 31
0.0
  0
LINE
  8
L-ZISSEN
 10
333.0
 20
266.0
 30
0.0
 11
356.0
 21
266.0
 31
0.0
  0
LINE
  8
L-ZISSEN
 10
200.0
 20
242.0
 30
0.0
 11
186.0
 21
242.0
 31
0.0
  0
LINE
  8
L-TYUSIN
  6
CENTER
 62
     1
 10
199.5
 20
254.0
 30
0.0
 11
173.5
 21
254.0
 31
0.0
  0
LINE
  8
L-ZISSEN
 10
200.0
 20
266.0
 30
0.0
 11
200.0
 21
242.0
 31
0.0
  0
LINE
  8
L-ZISSEN
 10
172.2
 20
266.0
 30
0.0
 11
172.2
 21
247.0
 31
0.0
  0
LINE
  8
L-ZISSEN
 10
87.8
 20
266.0
 30
0.0
 11
87.8
 21
247.0
 31
0.0
  0
LINE
  8
L-ZISSEN
 10
352.8
 20
266.0
 30
0.0
 11
352.8
 21
242.0
 31
0.0
  0
LINE
  8
L-ZISSEN
 10
356.0
 20
266.0
 30
0.0
 11
356.0
 21
242.0
 31
0.0
  0
LINE
  8
L-ZISSEN
 10
102.0
 20
192.0
 30
0.0
 11
102.0
 21
249.583802
 31
0.0
  0
LINE
  8
L-ZISSEN
 10
328.5
 20
288.0
 30
0.0
 11
328.5
 21
275.0
 31
0.0
  0
LINE
  8
L-ZISSEN
 10
104.0
 20
288.0
 30
0.0
 11
156.0
 21
288.0
 31
0.0
  0
LINE
  8
L-ZISSEN
 10
98.5
 20
275.0
 30
0.0
 11
98.5
 21
266.0
 31
0.0
  0
ARC
  8
L-ZISSEN
 10
300.0
 20
274.0
 30
0.0
 40
8.0
 50
0.0
 51
180.0
  0
LINE
  8
L-ZISSEN
 10
331.5
 20
265.0
 30
0.0
 11
331.5
 21
275.0
 31
0.0
  0
LINE
  8
L-ZISSEN
 10
308.0
 20
266.0
 30
0.0
 11
308.0
 21
274.0
 31
0.0
  0
LINE
  8
L-ZISSEN
 10
292.0
 20
266.0
 30
0.0
 11
292.0
 21
274.0
 31
0.0
  0
LINE
  8
L-ZISSEN
 10
268.5
 20
265.0
 30
0.0
 11
268.5
 21
275.0
 31
0.0
  0
LINE
  8
L-ZISSEN
 10
315.7
 20
275.0
 30
0.0
 11
315.7
 21
288.0
 31
0.0
  0
LINE
  8
L-ZISSEN
 10
284.3
 20
275.0
 30
0.0
 11
284.3
 21
288.0
 31
0.0
  0
LINE
  8
L-ZISSEN
 10
147.0
 20
279.0
 30
0.0
 11
157.0
 21
279.0
 31
0.0
  0
LINE
  8
L-ZISSEN
 10
157.0
 20
279.0
 30
0.0
 11
157.0
 21
275.0
 31
0.0
  0
LINE
  8
L-ZISSEN
 10
147.0
 20
279.0
 30
0.0
 11
147.0
 21
275.0
 31
0.0
  0
LINE
  8
L-ZISSEN
 10
161.5
 20
275.0
 30
0.0
 11
161.5
 21
266.0
 31
0.0
  0
LINE
  8
L-ZISSEN
 10
156.0
 20
288.0
 30
0.0
 11
156.0
 21
279.0
 31
0.0
  0
LINE
  8
L-ZISSEN
 10
145.7
 20
288.0
 30
0.0
 11
145.7
 21
275.0
 31
0.0
  0
LINE
  8
L-ZISSEN
 10
114.3
 20
288.0
 30
0.0
 11
114.3
 21
275.0
 31
0.0
  0
LINE
  8
L-ZISSEN
 10
91.0
 20
275.0
 30
0.0
 11
161.5
 21
275.0
 31
0.0
  0
LINE
  8
L-ZISSEN
 10
91.0
 20
266.1
 30
0.0
 11
91.0
 21
275.0
 31
0.0
  0
LINE
  8
L-ZISSEN
 10
179.5
 20
266.0
 30
0.0
 11
179.5
 21
282.1
 31
0.0
  0
LINE
  8
L-ZISSEN
 10
179.5
 20
282.1
 30
0.0
 11
156.0
 21
282.1
 31
0.0
  0
LINE
  8
L-ZISSEN
 10
104.0
 20
288.0
 30
0.0
 11
104.0
 21
279.0
 31
0.0
  0
CIRCLE
  8
L-ZISSEN
 10
300.0
 20
274.0
 30
0.0
 40
4.25
  0
LINE
  8
L-ZISSEN
 10
328.5
 20
288.0
 30
0.0
 11
276.5
 21
288.0
 31
0.0
  0
LINE
  8
L-TYUSIN
  6
CENTER
 62
     1
 10
312.0
 20
274.0
 30
0.0
 11
288.0
 21
274.0
 31
0.0
  0
LINE
  8
L-ZISSEN
 10
268.5
 20
275.0
 30
0.0
 11
292.0
 21
275.0
 31
0.0
  0
LINE
  8
L-ZISSEN
 10
331.5
 20
275.0
 30
0.0
 11
308.0
 21
275.0
 31
0.0
  0
LINE
  8
L-TYUSIN
  6
CENTER
 62
     1
 10
300.0
 20
293.0
 30
0.0
 11
300.0
 21
161.0
 31
0.0
  0
LINE
  8
L-ZISSEN
 10
171.0
 20
248.0
 30
0.0
 11
163.0
 21
248.0
 31
0.0
  0
LINE
  8
L-ZISSEN
 10
186.0
 20
197.5
 30
0.0
 11
178.5
 21
197.5
 31
0.0
  0
LINE
  8
L-ZISSEN
 10
186.0
 20
242.5
 30
0.0
 11
186.0
 21
197.5
 31
0.0
  0
CIRCLE
  8
L-ZISSEN
 10
300.0
 20
220.0
 30
0.0
 40
22.5
  0
LINE
  8
L-ZISSEN
 10
267.0
 20
248.0
 30
0.0
 11
333.0
 21
248.0
 31
0.0
  0
LINE
  8
L-TYUSIN
  6
CENTER
 62
     1
 10
260.0
 20
220.0
 30
0.0
 11
340.0
 21
220.0
 31
0.0
  0
LINE
  8
L-ZISSEN
 10
267.0
 20
249.353846
 30
0.0
 11
285.0
 21
249.353846
 31
0.0
  0
LINE
  8
L-ZISSEN
 10
158.0
 20
221.0
 30
0.0
 11
158.0
 21
249.583802
 31
0.0
  0
LINE
  8
L-TYUSIN
  6
CENTER
 62
     1
 10
264.0
 20
220.0
 30
0.0
 11
280.0
 21
220.0
 31
0.0
  0
LINE
  8
L-TYUSIN
  6
CENTER
 62
     1
 10
191.0
 20
220.0
 30
0.0
 11
69.0
 21
220.0
 31
0.0
  0
LINE
  8
L-TYUSIN
  6
CENTER
 62
     1
 10
130.0
 20
293.0
 30
0.0
 11
130.0
 21
161.0
 31
0.0
  0
CIRCLE
  8
L-ZISSEN
 10
161.0
 20
257.0
 30
0.0
 40
3.375
  0
CIRCLE
  8
L-ZISSEN
 10
99.0
 20
257.0
 30
0.0
 40
3.375
  0
LINE
  8
L-ZISSEN
 10
163.0
 20
181.0
 30
0.0
 11
97.0
 21
181.0
 31
0.0
  0
LINE
  8
L-ZISSEN
 10
200.0
 20
266.0
 30
0.0
 11
60.0
 21
266.0
 31
0.0
  0
ARC
  8
L-ZISSEN
 10
161.0
 20
257.0
 30
0.0
 40
8.0
 50
284.477512
 51
247.975687
  0
LINE
  8
L-ZISSEN
 10
163.0
 20
173.5
 30
0.0
 11
163.0
 21
249.254033
 31
0.0
  0
LINE
  8
L-ZISSEN
 10
169.0
 20
261.0
 30
0.0
 11
167.928203
 21
261.0
 31
0.0
  0
LINE
  8
L-ZISSEN
 10
169.0
 20
248.0
 30
0.0
 11
169.0
 21
266.0
 31
0.0
  0
LINE
  8
L-ZISSEN
 10
154.071797
 20
261.0
 30
0.0
 11
136.0
 21
261.0
 31
0.0
  0
LINE
  8
L-ZISSEN
 10
136.0
 20
261.0
 30
0.0
 11
136.0
 21
249.0
 31
0.0
  0
LINE
  8
L-ZISSEN
 10
154.0
 20
221.0
 30
0.0
 11
158.0
 21
221.0
 31
0.0
  0
ARC
  8
L-ZISSEN
 10
154.0
 20
212.0
 30
0.0
 40
9.0
 50
89.999985
 51
-90.0
  0
ARC
  8
L-ZISSEN
 10
130.0
 20
249.0
 30
0.0
 40
6.0
 50
180.0
 51
360.0
  0
LINE
  8
L-ZISSEN
 10
124.0
 20
261.0
 30
0.0
 11
124.0
 21
249.0
 31
0.0
  0
LINE
  8
L-ZISSEN
 10
105.928203
 20
261.0
 30
0.0
 11
124.0
 21
261.0
 31
0.0
  0
LINE
  8
L-ZISSEN
 10
91.0
 20
248.0
 30
0.0
 11
91.0
 21
266.0
 31
0.0
  0
LINE
  8
L-ZISSEN
 10
91.0
 20
261.0
 30
0.0
 11
92.071797
 21
261.0
 31
0.0
  0
LINE
  8
L-ZISSEN
 10
158.0
 20
192.0
 30
0.0
 11
158.0
 21
203.0
 31
0.0
  0
LINE
  8
L-ZISSEN
 10
97.0
 20
173.5
 30
0.0
 11
97.0
 21
249.254033
 31
0.0
  0
LINE
  8
L-ZISSEN
 10
307.5
 20
266.0
 30
0.0
 11
307.5
 21
250.0
 31
0.0
  0
LINE
  8
L-ZISSEN
 10
285.0
 20
265.0
 30
0.0
 11
267.0
 21
265.0
 31
0.0
  0
LINE
  8
L-ZISSEN
 10
285.0
 20
265.0
 30
0.0
 11
285.0
 21
249.353846
 31
0.0
  0
LINE
  8
L-ZISSEN
 10
268.5
 20
266.0
 30
0.0
 11
331.5
 21
266.0
 31
0.0
  0
LINE
  8
L-ZISSEN
 10
328.0
 20
181.0
 30
0.0
 11
272.0
 21
181.0
 31
0.0
  0
LINE
  8
L-ZISSEN
 10
272.0
 20
173.5
 30
0.0
 11
272.0
 21
192.0
 31
0.0
  0
LINE
  8
L-ZISSEN
 10
328.0
 20
173.5
 30
0.0
 11
328.0
 21
192.0
 31
0.0
  0
LINE
  8
L-ZISSEN
 10
267.0
 20
192.0
 30
0.0
 11
267.0
 21
265.0
 31
0.0
  0
LINE
  8
L-ZISSEN
 10
333.0
 20
266.0
 30
0.0
 11
333.0
 21
192.0
 31
0.0
  0
LINE
  8
L-ZISSEN
 10
267.0
 20
192.0
 30
0.0
 11
333.0
 21
192.0
 31
0.0
  0
LINE
  8
L-ZISSEN
 10
171.0
 20
192.0
 30
0.0
 11
158.0
 21
192.0
 31
0.0
  0
LINE
  8
L-ZISSEN
 10
186.0
 20
242.5
 30
0.0
 11
178.5
 21
242.5
 31
0.0
  0
ARC
  8
L-ZISSEN
 10
99.0
 20
257.0
 30
0.0
 40
8.0
 50
292.024313
 51
255.522488
  0
LINE
  8
L-ZISSEN
 10
74.0
 20
197.5
 30
0.0
 11
81.5
 21
197.5
 31
0.0
  0
LINE
  8
L-ZISSEN
 10
74.0
 20
242.5
 30
0.0
 11
74.0
 21
197.5
 31
0.0
  0
LINE
  8
L-ZISSEN
 10
74.0
 20
242.5
 30
0.0
 11
81.5
 21
242.5
 31
0.0
  0
LINE
  8
L-ZISSEN
 10
89.0
 20
248.0
 30
0.0
 11
97.0
 21
248.0
 31
0.0
  0
LINE
  8
L-ZISSEN
 10
89.0
 20
192.0
 30
0.0
 11
102.0
 21
192.0
 31
0.0
  0
LINE
  8
L-ZISSEN
 10
60.0
 20
242.0
 30
0.0
 11
74.0
 21
242.0
 31
0.0
  0
LINE
  8
L-ZISSEN
 10
60.0
 20
266.0
 30
0.0
 11
60.0
 21
242.0
 31
0.0
  0
LINE
  8
L-ZISSEN
 10
60.0
 20
242.0
 30
0.0
 11
74.0
 21
242.0
 31
0.0
  0
LINE
  8
L-ZISSEN
 10
103.0
 20
279.0
 30
0.0
 11
103.0
 21
275.0
 31
0.0
  0
LINE
  8
L-ZISSEN
 10
113.0
 20
279.0
 30
0.0
 11
113.0
 21
275.0
 31
0.0
  0
LINE
  8
L-ZISSEN
 10
103.0
 20
279.0
 30
0.0
 11
113.0
 21
279.0
 31
0.0
  0
LINE
  8
L-ZISSEN
 10
81.5
 20
237.0
 30
0.0
 11
81.5
 21
247.0
 31
0.0
  0
LINE
  8
L-ZISSEN
 10
81.5
 20
247.0
 30
0.0
 11
89.0
 21
247.0
 31
0.0
  0
LINE
  8
L-ZISSEN
 10
81.5
 20
237.0
 30
0.0
 11
89.0
 21
237.0
 31
0.0
  0
LINE
  8
L-ZISSEN
 10
89.0
 20
248.0
 30
0.0
 11
89.0
 21
192.0
 31
0.0
  0
LINE
  8
L-ZISSEN
 10
81.5
 20
203.0
 30
0.0
 11
89.0
 21
203.0
 31
0.0
  0
LINE
  8
L-ZISSEN
 10
81.5
 20
193.0
 30
0.0
 11
89.0
 21
193.0
 31
0.0
  0
LINE
  8
L-ZISSEN
 10
81.5
 20
203.0
 30
0.0
 11
81.5
 21
193.0
 31
0.0
  0
LINE
  8
L-ZISSEN
 10
292.5
 20
250.0
 30
0.0
 11
307.5
 21
250.0
 31
0.0
  0
LINE
  8
L-ZISSEN
 10
315.0
 20
265.0
 30
0.0
 11
315.0
 21
249.353846
 31
0.0
  0
LINE
  8
L-ZISSEN
 10
315.0
 20
265.0
 30
0.0
 11
333.0
 21
265.0
 31
0.0
  0
LINE
  8
L-ZISSEN
 10
333.0
 20
249.353846
 30
0.0
 11
315.0
 21
249.353846
 31
0.0
  0
LINE
  8
L-ZISSEN
 10
292.5
 20
266.0
 30
0.0
 11
292.5
 21
250.0
 31
0.0
  0
LINE
  8
L-ZISSEN
 10
273.0
 20
279.0
 30
0.0
 11
273.0
 21
275.1
 31
0.0
  0
LINE
  8
L-ZISSEN
 10
283.0
 20
279.0
 30
0.0
 11
283.0
 21
275.1
 31
0.0
  0
LINE
  8
L-ZISSEN
 10
273.0
 20
279.0
 30
0.0
 11
283.0
 21
279.0
 31
0.0
  0
LINE
  8
L-ZISSEN
 10
317.0
 20
279.0
 30
0.0
 11
327.0
 21
279.0
 31
0.0
  0
LINE
  8
L-ZISSEN
 10
327.0
 20
279.0
 30
0.0
 11
327.0
 21
275.1
 31
0.0
  0
LINE
  8
L-ZISSEN
 10
317.0
 20
279.0
 30
0.0
 11
317.0
 21
275.1
 31
0.0
  0
LINE
  8
L-ZISSEN
 10
498.5
 20
203.0
 30
0.0
 11
498.5
 21
193.0
 31
0.0
  0
LINE
  8
L-ZISSEN
 10
498.5
 20
193.0
 30
0.0
 11
491.0
 21
193.0
 31
0.0
  0
LINE
  8
L-ZISSEN
 10
498.5
 20
203.0
 30
0.0
 11
491.0
 21
203.0
 31
0.0
  0
LINE
  8
L-ZISSEN
 10
491.0
 20
242.0
 30
0.0
 11
491.0
 21
192.0
 31
0.0
  0
LINE
  8
L-ZISSEN
 10
498.5
 20
237.0
 30
0.0
 11
491.0
 21
237.0
 31
0.0
  0
LINE
  8
L-ZISSEN
 10
498.5
 20
237.0
 30
0.0
 11
498.5
 21
242.0
 31
0.0
  0
LINE
  8
L-ZISSEN
 10
477.0
 20
279.0
 30
0.0
 11
467.0
 21
279.0
 31
0.0
  0
LINE
  8
L-ZISSEN
 10
467.0
 20
279.0
 30
0.0
 11
467.0
 21
275.0
 31
0.0
  0
LINE
  8
L-ZISSEN
 10
477.0
 20
279.0
 30
0.0
 11
477.0
 21
275.0
 31
0.0
  0
LINE
  8
L-ZISSEN
 10
520.0
 20
242.0
 30
0.0
 11
506.0
 21
242.0
 31
0.0
  0
LINE
  8
L-ZISSEN
 10
520.0
 20
266.0
 30
0.0
 11
520.0
 21
242.0
 31
0.0
  0
LINE
  8
L-ZISSEN
 10
520.0
 20
242.0
 30
0.0
 11
380.0
 21
242.0
 31
0.0
  0
LINE
  8
L-ZISSEN
 10
491.0
 20
192.0
 30
0.0
 11
478.0
 21
192.0
 31
0.0
  0
LINE
  8
L-ZISSEN
 10
506.0
 20
242.0
 30
0.0
 11
506.0
 21
197.5
 31
0.0
  0
LINE
  8
L-ZISSEN
 10
506.0
 20
197.5
 30
0.0
 11
498.5
 21
197.5
 31
0.0
  0
LINE
  8
L-ZISSEN
 10
409.0
 20
192.0
 30
0.0
 11
422.0
 21
192.0
 31
0.0
  0
LINE
  8
L-ZISSEN
 10
483.0
 20
173.5
 30
0.0
 11
483.0
 21
242.0
 31
0.0
  0
LINE
  8
L-ZISSEN
 10
422.0
 20
192.0
 30
0.0
 11
422.0
 21
203.0
 31
0.0
  0
ARC
  8
L-ZISSEN
 10
426.0
 20
212.0
 30
0.0
 40
9.0
 50
-90.0
 51
90.000015
  0
LINE
  8
L-ZISSEN
 10
426.0
 20
221.0
 30
0.0
 11
422.0
 21
221.0
 31
0.0
  0
LINE
  8
L-ZISSEN
 10
410.0
 20
242.0
 30
0.0
 11
410.0
 21
266.0
 31
0.0
  0
LINE
  8
L-ZISSEN
 10
417.0
 20
173.5
 30
0.0
 11
417.0
 21
242.0
 31
0.0
  0
LINE
  8
L-ZISSEN
 10
380.0
 20
266.0
 30
0.0
 11
520.0
 21
266.0
 31
0.0
  0
LINE
  8
L-ZISSEN
 10
417.0
 20
181.0
 30
0.0
 11
483.0
 21
181.0
 31
0.0
  0
LINE
  8
L-TYUSIN
  6
CENTER
 62
     1
 10
450.0
 20
293.1
 30
0.0
 11
450.0
 21
161.0
 31
0.0
  0
LINE
  8
L-TYUSIN
  6
CENTER
 62
     1
 10
389.0
 20
220.0
 30
0.0
 11
511.0
 21
220.0
 31
0.0
  0
LINE
  8
L-ZISSEN
 10
422.0
 20
221.0
 30
0.0
 11
422.0
 21
242.0
 31
0.0
  0
LINE
  8
L-ZISSEN
 10
394.0
 20
242.0
 30
0.0
 11
394.0
 21
197.5
 31
0.0
  0
LINE
  8
L-ZISSEN
 10
394.0
 20
197.5
 30
0.0
 11
401.5
 21
197.5
 31
0.0
  0
LINE
  8
L-ZISSEN
 10
476.0
 20
288.1
 30
0.0
 11
476.0
 21
279.0
 31
0.0
  0
LINE
  8
L-ZISSEN
 10
400.5
 20
282.1
 30
0.0
 11
424.0
 21
282.1
 31
0.0
  0
LINE
  8
L-ZISSEN
 10
400.5
 20
266.0
 30
0.0
 11
400.5
 21
282.1
 31
0.0
  0
LINE
  8
L-ZISSEN
 10
489.0
 20
266.1
 30
0.0
 11
489.0
 21
275.0
 31
0.0
  0
LINE
  8
L-ZISSEN
 10
489.0
 20
275.0
 30
0.0
 11
418.5
 21
275.0
 31
0.0
  0
LINE
  8
L-ZISSEN
 10
465.7
 20
288.1
 30
0.0
 11
465.7
 21
275.0
 31
0.0
  0
LINE
  8
L-ZISSEN
 10
434.3
 20
288.1
 30
0.0
 11
434.3
 21
275.0
 31
0.0
  0
LINE
  8
L-ZISSEN
 10
424.0
 20
288.1
 30
0.0
 11
424.0
 21
279.0
 31
0.0
  0
LINE
  8
L-ZISSEN
 10
418.5
 20
275.0
 30
0.0
 11
418.5
 21
266.0
 31
0.0
  0
LINE
  8
L-ZISSEN
 10
433.0
 20
279.0
 30
0.0
 11
433.0
 21
275.0
 31
0.0
  0
LINE
  8
L-ZISSEN
 10
423.0
 20
279.0
 30
0.0
 11
423.0
 21
275.0
 31
0.0
  0
LINE
  8
L-ZISSEN
 10
433.0
 20
279.0
 30
0.0
 11
423.0
 21
279.0
 31
0.0
  0
LINE
  8
L-ZISSEN
 10
481.5
 20
275.0
 30
0.0
 11
481.5
 21
266.0
 31
0.0
  0
LINE
  8
L-TYUSIN
  6
CENTER
 62
     1
 10
395.5
 20
274.0
 30
0.0
 11
405.5
 21
274.0
 31
0.0
  0
LINE
  8
L-ZISSEN
 10
476.0
 20
288.1
 30
0.0
 11
424.0
 21
288.1
 31
0.0
  0
LINE
  8
L-ZISSEN
 10
478.0
 20
192.0
 30
0.0
 11
478.0
 21
242.0
 31
0.0
  0
LINE
  8
L-ZISSEN
 10
380.0
 20
266.0
 30
0.0
 11
380.0
 21
242.0
 31
0.0
  0
LINE
  8
L-TYUSIN
  6
CENTER
 62
     1
 10
380.5
 20
254.0
 30
0.0
 11
406.5
 21
254.0
 31
0.0
  0
LINE
  8
L-TYUSIN
  6
CENTER
 62
     1
 10
393.5
 20
262.5
 30
0.0
 11
393.5
 21
245.5
 31
0.0
  0
LINE
  8
L-TYUSIN
  6
CENTER
 62
     1
 10
506.5
 20
262.5
 30
0.0
 11
506.5
 21
245.5
 31
0.0
  0
LINE
  8
L-ZISSEN
 10
389.0
 20
258.5
 30
0.0
 11
398.0
 21
258.5
 31
0.0
  0
LINE
  8
L-ZISSEN
 10
388.999998
 20
249.5
 30
0.0
 11
397.999999
 21
249.5
 31
0.0
  0
ARC
  8
L-ZISSEN
 10
389.0
 20
254.0
 30
0.0
 40
4.5
 50
90.0
 51
269.999979
  0
ARC
  8
L-ZISSEN
 10
398.0
 20
254.0
 30
0.0
 40
4.5
 50
269.999986
 51
90.0
  0
ARC
  8
L-ZISSEN
 10
502.0
 20
254.0
 30
0.0
 40
4.5
 50
90.00001
 51
269.999993
  0
ARC
  8
L-ZISSEN
 10
511.0
 20
254.0
 30
0.0
 40
4.5
 50
269.999984
 51
90.000017
  0
LINE
  8
L-ZISSEN
 10
502.0
 20
258.5
 30
0.0
 11
510.999999
 21
258.5
 31
0.0
  0
LINE
  8
L-ZISSEN
 10
501.999999
 20
249.5
 30
0.0
 11
511.0
 21
249.5
 31
0.0
  0
LINE
  8
L-TYUSIN
  6
CENTER
 62
     1
 10
493.5
 20
254.0
 30
0.0
 11
519.5
 21
254.0
 31
0.0
  0
CIRCLE
  8
L-ZISSEN
 10
326.0
 20
242.0
 30
0.0
 40
5.0
  0
CIRCLE
  8
L-ZISSEN
 10
274.0
 20
242.0
 30
0.0
 40
5.0
  0
CIRCLE
  8
L-ZISSEN
 10
274.0
 20
198.0
 30
0.0
 40
5.0
  0
CIRCLE
  8
L-ZISSEN
 10
326.0
 20
198.0
 30
0.0
 40
5.0
  0
CIRCLE
  8
L-ZISSEN
 10
419.0
 20
257.0
 30
0.0
 40
5.0
  0
CIRCLE
  8
L-ZISSEN
 10
481.0
 20
257.0
 30
0.0
 40
5.0
  0
LINE
  8
L-ZISSEN
 10
490.0
 20
242.0
 30
0.0
 11
490.0
 21
266.0
 31
0.0
  0
LINE
  8
L-TYUSIN
  6
CENTER
 62
     1
 10
130.0
 20
331.0
 30
0.0
 11
130.0
 21
408.7
 31
0.0
  0
LINE
  8
L-ZISSEN
 10
276.5
 20
279.0
 30
0.0
 11
276.5
 21
288.0
 31
0.0
  0
CIRCLE
  8
L-ZISSEN
 10
300.0
 20
220.0
 30
0.0
 40
15.1455
  0
LINE
  8
L-ZISSEN
 10
161.5
 20
336.0
 30
0.0
 11
98.5
 21
336.0
 31
0.0
  0
LINE
  8
L-ZISSEN
 10
171.0
 20
334.5
 30
0.0
 11
145.0
 21
334.5
 31
0.0
  0
LINE
  8
L-ZISSEN
 10
153.0
 20
334.5
 30
0.0
 11
153.0
 21
336.0
 31
0.0
  0
LINE
  8
L-ZISSEN
 10
107.0
 20
334.5
 30
0.0
 11
107.0
 21
336.0
 31
0.0
  0
LINE
  8
L-ZISSEN
 10
107.0
 20
334.5
 30
0.0
 11
89.0
 21
334.5
 31
0.0
  0
LINE
  8
L-ZISSEN
 10
173.2
 20
400.5
 30
0.0
 11
86.8
 21
400.5
 31
0.0
  0
LINE
  8
L-ZISSEN
 10
171.0
 20
334.5
 30
0.0
 11
171.0
 21
359.5
 31
0.0
  0
LINE
  8
L-ZISSEN
 10
74.0
 20
345.0
 30
0.0
 11
74.0
 21
390.0
 31
0.0
  0
LINE
  8
L-ZISSEN
 10
81.5
 20
345.0
 30
0.0
 11
74.0
 21
345.0
 31
0.0
  0
LINE
  8
L-TYUSIN
  6
CENTER
 62
     1
 10
69.0
 20
367.5
 30
0.0
 11
191.0
 21
367.5
 31
0.0
  0
LINE
  8
L-ZISSEN
 10
81.5
 20
336.5
 30
0.0
 11
81.5
 21
346.5
 31
0.0
  0
LINE
  8
L-ZISSEN
 10
81.5
 20
346.5
 30
0.0
 11
89.0
 21
346.5
 31
0.0
  0
LINE
  8
L-ZISSEN
 10
81.5
 20
336.5
 30
0.0
 11
89.0
 21
336.5
 31
0.0
  0
LINE
  8
L-ZISSEN
 10
81.5
 20
398.5
 30
0.0
 11
89.0
 21
398.5
 31
0.0
  0
LINE
  8
L-ZISSEN
 10
81.5
 20
388.5
 30
0.0
 11
89.0
 21
388.5
 31
0.0
  0
LINE
  8
L-ZISSEN
 10
81.5
 20
398.5
 30
0.0
 11
81.5
 21
388.5
 31
0.0
  0
LINE
  8
L-ZISSEN
 10
81.5
 20
390.0
 30
0.0
 11
74.0
 21
390.0
 31
0.0
  0
LINE
  8
L-ZISSEN
 10
90.0
 20
423.5
 30
0.0
 11
60.0
 21
423.5
 31
0.0
  0
LINE
  8
L-ZISSEN
 10
60.0
 20
420.3
 30
0.0
 11
60.0
 21
423.5
 31
0.0
  0
LINE
  8
L-ZISSEN
 10
90.0
 20
403.7
 30
0.0
 11
90.0
 21
423.5
 31
0.0
  0
LINE
  8
L-ZISSEN
 10
86.8
 20
400.5
 30
0.0
 11
86.8
 21
420.3
 31
0.0
  0
LINE
  8
L-ZISSEN
 10
170.0
 20
403.7
 30
0.0
 11
90.0
 21
403.7
 31
0.0
  0
LINE
  8
L-ZISSEN
 10
86.8
 20
420.3
 30
0.0
 11
60.0
 21
420.3
 31
0.0
  0
LINE
  8
L-ZISSEN
 10
173.2
 20
420.3
 30
0.0
 11
200.0
 21
420.3
 31
0.0
  0
LINE
  8
L-ZISSEN
 10
200.0
 20
420.3
 30
0.0
 11
200.0
 21
423.5
 31
0.0
  0
LINE
  8
L-ZISSEN
 10
170.0
 20
423.5
 30
0.0
 11
200.0
 21
423.5
 31
0.0
  0
LINE
  8
L-ZISSEN
 10
173.2
 20
400.5
 30
0.0
 11
173.2
 21
420.3
 31
0.0
  0
LINE
  8
L-ZISSEN
 10
170.0
 20
403.7
 30
0.0
 11
170.0
 21
423.5
 31
0.0
  0
LINE
  8
L-ZISSEN
 10
166.0
 20
411.2
 30
0.0
 11
156.0
 21
411.2
 31
0.0
  0
LINE
  8
L-ZISSEN
 10
156.0
 20
411.2
 30
0.0
 11
156.0
 21
403.7
 31
0.0
  0
LINE
  8
L-ZISSEN
 10
166.0
 20
411.2
 30
0.0
 11
166.0
 21
403.7
 31
0.0
  0
LINE
  8
L-ZISSEN
 10
94.0
 20
411.2
 30
0.0
 11
94.0
 21
403.7
 31
0.0
  0
LINE
  8
L-ZISSEN
 10
104.0
 20
411.2
 30
0.0
 11
104.0
 21
403.7
 31
0.0
  0
LINE
  8
L-ZISSEN
 10
94.0
 20
411.2
 30
0.0
 11
104.0
 21
411.2
 31
0.0
  0
LINE
  8
L-ZISSEN
 10
178.5
 20
203.0
 30
0.0
 11
178.5
 21
193.0
 31
0.0
  0
LINE
  8
L-ZISSEN
 10
178.5
 20
193.0
 30
0.0
 11
171.0
 21
193.0
 31
0.0
  0
LINE
  8
L-ZISSEN
 10
178.5
 20
203.0
 30
0.0
 11
171.0
 21
203.0
 31
0.0
  0
LINE
  8
L-ZISSEN
 10
171.0
 20
248.0
 30
0.0
 11
171.0
 21
192.0
 31
0.0
  0
LINE
  8
L-ZISSEN
 10
178.5
 20
237.0
 30
0.0
 11
171.0
 21
237.0
 31
0.0
  0
LINE
  8
L-ZISSEN
 10
178.5
 20
247.0
 30
0.0
 11
171.0
 21
247.0
 31
0.0
  0
LINE
  8
L-ZISSEN
 10
178.5
 20
237.0
 30
0.0
 11
178.5
 21
247.0
 31
0.0
  0
LINE
  8
L-ZISSEN
 10
401.5
 20
237.0
 30
0.0
 11
401.5
 21
242.0
 31
0.0
  0
LINE
  8
L-ZISSEN
 10
401.5
 20
237.0
 30
0.0
 11
409.0
 21
237.0
 31
0.0
  0
LINE
  8
L-ZISSEN
 10
409.0
 20
242.0
 30
0.0
 11
409.0
 21
192.0
 31
0.0
  0
LINE
  8
L-ZISSEN
 10
401.5
 20
203.0
 30
0.0
 11
409.0
 21
203.0
 31
0.0
  0
LINE
  8
L-ZISSEN
 10
401.5
 20
193.0
 30
0.0
 11
409.0
 21
193.0
 31
0.0
  0
LINE
  8
L-ZISSEN
 10
401.5
 20
203.0
 30
0.0
 11
401.5
 21
193.0
 31
0.0
  0
TEXT
  8
L-ZISSEN
 10
45.0
 20
465.0
 30
0.0
 40
4.5
  1
MODEL NO. : 368- 00-80BM
  0
LINE
  8
L-ZISSEN
 10
178.5
 20
336.5
 30
0.0
 11
171.0
 21
336.5
 31
0.0
  0
LINE
  8
L-ZISSEN
 10
178.5
 20
346.5
 30
0.0
 11
171.0
 21
346.5
 31
0.0
  0
LINE
  8
L-ZISSEN
 10
178.5
 20
336.5
 30
0.0
 11
178.5
 21
346.5
 31
0.0
  0
LINE
  8
L-ZISSEN
 10
178.5
 20
345.0
 30
0.0
 11
186.0
 21
345.0
 31
0.0
  0
LINE
  8
L-ZISSEN
 10
186.0
 20
345.0
 30
0.0
 11
186.0
 21
390.0
 31
0.0
  0
LINE
  8
L-ZISSEN
 10
178.5
 20
390.0
 30
0.0
 11
186.0
 21
390.0
 31
0.0
  0
LINE
  8
L-ZISSEN
 10
178.5
 20
388.5
 30
0.0
 11
171.0
 21
388.5
 31
0.0
  0
LINE
  8
L-ZISSEN
 10
178.5
 20
398.5
 30
0.0
 11
178.5
 21
388.5
 31
0.0
  0
LINE
  8
L-ZISSEN
 10
178.5
 20
398.5
 30
0.0
 11
171.0
 21
398.5
 31
0.0
  0
LINE
  8
L-ZISSEN
 10
161.5
 20
399.0
 30
0.0
 11
98.5
 21
399.0
 31
0.0
  0
LINE
  8
L-ZISSEN
 10
153.0
 20
400.5
 30
0.0
 11
153.0
 21
399.0
 31
0.0
  0
LINE
  8
L-ZISSEN
 10
107.0
 20
400.5
 30
0.0
 11
107.0
 21
399.0
 31
0.0
  0
LINE
  8
L-ZISSEN
 10
104.0
 20
351.8
 30
0.0
 11
104.0
 21
383.2
 31
0.0
  0
LINE
  8
L-ZISSEN
 10
108.0
 20
351.8
 30
0.0
 11
104.0
 21
351.8
 31
0.0
  0
ARC
  8
L-ZISSEN
 10
108.0
 20
345.5
 30
0.0
 40
6.3
 50
360.0
 51
90.0
  0
LINE
  8
L-ZISSEN
 10
114.3
 20
345.5
 30
0.0
 11
114.3
 21
344.0
 31
0.0
  0
LINE
  8
L-ZISSEN
 10
145.7
 20
344.0
 30
0.0
 11
114.3
 21
344.0
 31
0.0
  0
CIRCLE
  8
L-ZISSEN
  6
CONTINUOUS
 62
     7
 10
108.0
 20
345.5
 30
0.0
 40
5.0
  0
CIRCLE
  8
L-ZISSEN
  6
CONTINUOUS
 62
     7
 10
152.0
 20
345.5
 30
0.0
 40
5.0
  0
ARC
  8
L-ZISSEN
 10
152.0
 20
345.5
 30
0.0
 40
6.3
 50
90.0
 51
180.0
  0
LINE
  8
L-ZISSEN
 10
152.0
 20
351.8
 30
0.0
 11
156.0
 21
351.8
 31
0.0
  0
LINE
  8
L-ZISSEN
 10
145.7
 20
345.5
 30
0.0
 11
145.7
 21
344.0
 31
0.0
  0
LINE
  8
L-ZISSEN
 10
156.0
 20
351.8
 30
0.0
 11
156.0
 21
383.2
 31
0.0
  0
LINE
  8
L-ZISSEN
 10
161.5
 20
375.5
 30
0.0
 11
161.5
 21
399.0
 31
0.0
  0
LINE
  8
L-ZISSEN
 10
152.0
 20
383.2
 30
0.0
 11
156.0
 21
383.2
 31
0.0
  0
ARC
  8
L-ZISSEN
 10
152.0
 20
389.5
 30
0.0
 40
6.3
 50
180.0
 51
270.0
  0
CIRCLE
  8
L-ZISSEN
  6
CONTINUOUS
 62
     7
 10
152.0
 20
389.5
 30
0.0
 40
5.0
  0
LINE
  8
L-ZISSEN
 10
145.7
 20
389.5
 30
0.0
 11
145.7
 21
396.0
 31
0.0
  0
LINE
  8
L-ZISSEN
 10
145.7
 20
396.0
 30
0.0
 11
114.3
 21
396.0
 31
0.0
  0
LINE
  8
L-ZISSEN
 10
114.3
 20
389.5
 30
0.0
 11
114.3
 21
396.0
 31
0.0
  0
ARC
  8
L-ZISSEN
 10
108.0
 20
389.5
 30
0.0
 40
6.3
 50
270.0
 51
0.0
  0
LINE
  8
L-ZISSEN
 10
108.0
 20
383.2
 30
0.0
 11
104.0
 21
383.2
 31
0.0
  0
CIRCLE
  8
L-ZISSEN
  6
CONTINUOUS
 62
     7
 10
108.0
 20
389.5
 30
0.0
 40
5.0
  0
LINE
  8
L-ZISSEN
 10
98.5
 20
375.0
 30
0.0
 11
98.5
 21
399.0
 31
0.0
  0
ARC
  8
L-ZISSEN
 10
98.5
 20
367.5
 30
0.0
 40
7.5
 50
90.0
 51
270.0
  0
LINE
  8
L-ZISSEN
 10
98.5
 20
336.0
 30
0.0
 11
98.5
 21
360.0
 31
0.0
  0
LINE
  8
L-ZISSEN
 10
161.5
 20
336.0
 30
0.0
 11
161.5
 21
359.5
 31
0.0
  0
LINE
  8
L-ZISSEN
 10
179.5
 20
359.5
 30
0.0
 11
179.5
 21
375.5
 31
0.0
  0
LINE
  8
L-ZISSEN
 10
171.0
 20
375.5
 30
0.0
 11
171.0
 21
400.5
 31
0.0
  0
LINE
  8
L-ZISSEN
 10
169.0
 20
382.5
 30
0.0
 11
161.5
 21
382.5
 31
0.0
  0
LINE
  8
L-ZISSEN
 10
169.0
 20
352.5
 30
0.0
 11
161.5
 21
352.5
 31
0.0
  0
LINE
  8
L-ZISSEN
 10
91.0
 20
352.5
 30
0.0
 11
98.5
 21
352.5
 31
0.0
  0
LINE
  8
L-ZISSEN
 10
91.0
 20
382.5
 30
0.0
 11
98.5
 21
382.5
 31
0.0
  0
LINE
  8
L-ZISSEN
 10
89.0
 20
334.5
 30
0.0
 11
89.0
 21
400.5
 31
0.0
  0
LINE
  8
L-ZISSEN
 10
179.5
 20
375.5
 30
0.0
 11
156.0
 21
375.5
 31
0.0
  0
LINE
  8
L-ZISSEN
 10
179.5
 20
359.5
 30
0.0
 11
156.0
 21
359.5
 31
0.0
  0
LINE
  8
L-ZISSEN
 10
163.0
 20
375.5
 30
0.0
 11
163.0
 21
382.5
 31
0.0
  0
LINE
  8
L-ZISSEN
 10
97.0
 20
374.848469
 30
0.0
 11
97.0
 21
382.5
 31
0.0
  0
LINE
  8
L-ZISSEN
 10
163.0
 20
359.5
 30
0.0
 11
163.0
 21
352.5
 31
0.0
  0
LINE
  8
L-ZISSEN
 10
97.0
 20
360.151531
 30
0.0
 11
97.0
 21
352.5
 31
0.0
  0
LINE
  8
L-TYUSIN
  6
CENTER
 62
     1
 10
186.5
 20
428.5
 30
0.0
 11
186.5
 21
415.3
 31
0.0
  0
LINE
  8
L-TYUSIN
  6
CENTER
 62
     1
 10
73.5
 20
428.5
 30
0.0
 11
73.5
 21
415.3
 31
0.0
  0
SOLID
  8
L-ZISSEN
 10
187.120951
 20
218.31045
 30
0.0
 11
187.608322
 21
218.765329
 31
0.0
 12
186.0
 22
220.0
 32
0.0
 13
186.0
 23
220.0
 33
0.0
  0
LINE
  8
L-ZISSEN
 10
187.364637
 20
218.537889
 30
0.0
 11
200.0
 21
205.0
 31
0.0
  0
LINE
  8
L-ZISSEN
 10
200.0
 20
205.0
 30
0.0
 11
202.0
 21
205.0
 31
0.0
  0
TEXT
  8
L-ZISSEN
 10
204.0
 20
202.75
 30
0.0
 40
4.5
  1
IN
  0
TEXT
  8
L-ZISSEN
 10
205.0
 20
195.0
 30
0.0
 40
4.5
  1
Rc 1/2
  0
TEXT
  8
L-ZISSEN
 10
205.0
 20
185.0
 30
0.0
 40
4.5
  1
Rc 3/4
  0
TEXT
  8
L-ZISSEN
 10
205.0
 20
175.0
 30
0.0
 40
4.5
  1
Rc 1
  0
TEXT
  8
L-ZISSEN
 10
205.0
 20
165.0
 30
0.0
 40
4.5
  1
Rc 1-1/4
  0
TEXT
  8
L-ZISSEN
 10
111.0
 20
474.0
 30
0.0
 40
4.5
  1
4
  0
TEXT
  8
L-ZISSEN
 10
111.0
 20
468.0
 30
0.0
 40
4.5
  1
6
  0
TEXT
  8
L-ZISSEN
 10
111.0
 20
462.0
 30
0.0
 40
4.5
  1
8
  0
TEXT
  8
L-ZISSEN
 10
111.0
 20
456.0
 30
0.0
 40
4.5
  1
A
  0
LINE
  8
L-TYUSIN
  6
CENTER
 62
     1
 10
174.5
 20
274.0
 30
0.0
 11
184.5
 21
274.0
 31
0.0
  0
LINE
  8
L-ZISSEN
 10
169.0
 20
334.5
 30
0.0
 11
169.0
 21
352.5
 31
0.0
  0
LINE
  8
L-ZISSEN
 10
169.0
 20
400.5
 30
0.0
 11
169.0
 21
382.5
 31
0.0
  0
LINE
  8
L-ZISSEN
 10
91.0
 20
400.5
 30
0.0
 11
91.0
 21
382.5
 31
0.0
  0
LINE
  8
L-ZISSEN
 10
91.0
 20
334.5
 30
0.0
 11
91.0
 21
352.5
 31
0.0
  0
LINE
  8
L-ZISSEN
 10
328.0
 20
173.5
 30
0.0
 11
272.0
 21
173.5
 31
0.0
  0
LINE
  8
L-ZISSEN
 10
109.0
 20
166.0
 30
0.0
 11
109.0
 21
173.5
 31
0.0
  0
LINE
  8
L-ZISSEN
 10
99.0
 20
166.0
 30
0.0
 11
99.0
 21
173.5
 31
0.0
  0
LINE
  8
L-ZISSEN
 10
151.0
 20
166.0
 30
0.0
 11
151.0
 21
173.5
 31
0.0
  0
LINE
  8
L-ZISSEN
 10
161.0
 20
166.0
 30
0.0
 11
161.0
 21
173.5
 31
0.0
  0
LINE
  8
L-ZISSEN
 10
283.0
 20
166.0
 30
0.0
 11
283.0
 21
173.5
 31
0.0
  0
LINE
  8
L-ZISSEN
 10
273.0
 20
166.0
 30
0.0
 11
273.0
 21
173.5
 31
0.0
  0
LINE
  8
L-ZISSEN
 10
317.0
 20
166.0
 30
0.0
 11
317.0
 21
173.5
 31
0.0
  0
LINE
  8
L-ZISSEN
 10
327.5
 20
166.0
 30
0.0
 11
272.5
 21
166.0
 31
0.0
  0
LINE
  8
L-ZISSEN
 10
327.0
 20
166.0
 30
0.0
 11
327.0
 21
173.5
 31
0.0
  0
LINE
  8
L-ZISSEN
 10
94.0
 20
46.3
 30
0.0
 11
104.0
 21
46.3
 31
0.0
  0
LINE
  8
L-ZISSEN
 10
104.0
 20
46.3
 30
0.0
 11
104.0
 21
53.8
 31
0.0
  0
LINE
  8
L-ZISSEN
 10
94.0
 20
46.3
 30
0.0
 11
94.0
 21
53.8
 31
0.0
  0
LINE
  8
L-ZISSEN
 10
166.0
 20
46.3
 30
0.0
 11
166.0
 21
53.8
 31
0.0
  0
LINE
  8
L-ZISSEN
 10
156.0
 20
46.3
 30
0.0
 11
156.0
 21
53.8
 31
0.0
  0
LINE
  8
L-ZISSEN
 10
166.0
 20
46.3
 30
0.0
 11
156.0
 21
46.3
 31
0.0
  0
LINE
  8
L-ZISSEN
 10
170.0
 20
53.8
 30
0.0
 11
170.0
 21
34.0
 31
0.0
  0
LINE
  8
L-ZISSEN
 10
173.2
 20
57.0
 30
0.0
 11
173.2
 21
37.2
 31
0.0
  0
LINE
  8
L-ZISSEN
 10
170.0
 20
34.0
 30
0.0
 11
200.0
 21
34.0
 31
0.0
  0
LINE
  8
L-ZISSEN
 10
200.0
 20
37.2
 30
0.0
 11
200.0
 21
34.0
 31
0.0
  0
LINE
  8
L-ZISSEN
 10
173.2
 20
37.2
 30
0.0
 11
200.0
 21
37.2
 31
0.0
  0
LINE
  8
L-ZISSEN
 10
86.8
 20
37.2
 30
0.0
 11
60.0
 21
37.2
 31
0.0
  0
LINE
  8
L-ZISSEN
 10
170.0
 20
53.8
 30
0.0
 11
90.0
 21
53.8
 31
0.0
  0
LINE
  8
L-ZISSEN
 10
86.8
 20
57.0
 30
0.0
 11
86.8
 21
37.2
 31
0.0
  0
LINE
  8
L-ZISSEN
 10
90.0
 20
53.8
 30
0.0
 11
90.0
 21
34.0
 31
0.0
  0
LINE
  8
L-ZISSEN
 10
60.0
 20
37.2
 30
0.0
 11
60.0
 21
34.0
 31
0.0
  0
LINE
  8
L-ZISSEN
 10
90.0
 20
34.0
 30
0.0
 11
60.0
 21
34.0
 31
0.0
  0
LINE
  8
L-ZISSEN
 10
81.5
 20
67.5
 30
0.0
 11
74.0
 21
67.5
 31
0.0
  0
LINE
  8
L-ZISSEN
 10
81.5
 20
59.0
 30
0.0
 11
81.5
 21
69.0
 31
0.0
  0
LINE
  8
L-ZISSEN
 10
81.5
 20
69.0
 30
0.0
 11
89.0
 21
69.0
 31
0.0
  0
LINE
  8
L-ZISSEN
 10
81.5
 20
59.0
 30
0.0
 11
89.0
 21
59.0
 31
0.0
  0
LINE
  8
L-ZISSEN
 10
81.5
 20
121.0
 30
0.0
 11
89.0
 21
121.0
 31
0.0
  0
LINE
  8
L-ZISSEN
 10
81.5
 20
111.0
 30
0.0
 11
89.0
 21
111.0
 31
0.0
  0
LINE
  8
L-ZISSEN
 10
81.5
 20
121.0
 30
0.0
 11
81.5
 21
111.0
 31
0.0
  0
LINE
  8
L-TYUSIN
  6
CENTER
 62
     1
 10
69.0
 20
90.0
 30
0.0
 11
191.0
 21
90.0
 31
0.0
  0
LINE
  8
L-ZISSEN
 10
81.5
 20
112.5
 30
0.0
 11
74.0
 21
112.5
 31
0.0
  0
LINE
  8
L-ZISSEN
 10
89.0
 20
123.0
 30
0.0
 11
89.0
 21
57.0
 31
0.0
  0
LINE
  8
L-ZISSEN
 10
74.0
 20
112.5
 30
0.0
 11
74.0
 21
67.5
 31
0.0
  0
LINE
  8
L-ZISSEN
 10
171.0
 20
123.0
 30
0.0
 11
171.0
 21
57.0
 31
0.0
  0
LINE
  8
L-ZISSEN
 10
173.2
 20
57.0
 30
0.0
 11
86.8
 21
57.0
 31
0.0
  0
LINE
  8
L-ZISSEN
 10
107.0
 20
123.0
 30
0.0
 11
89.0
 21
123.0
 31
0.0
  0
LINE
  8
L-ZISSEN
 10
171.0
 20
123.0
 30
0.0
 11
145.0
 21
123.0
 31
0.0
  0
LINE
  8
L-ZISSEN
 10
145.0
 20
58.5
 30
0.0
 11
107.0
 21
58.5
 31
0.0
  0
LINE
  8
L-ZISSEN
 10
145.0
 20
121.5
 30
0.0
 11
107.0
 21
121.5
 31
0.0
  0
LINE
  8
L-TYUSIN
  6
CENTER
 62
     1
 10
130.0
 20
126.5
 30
0.0
 11
130.0
 21
48.8
 31
0.0
  0
LINE
  8
L-ZISSEN
 10
161.0
 20
166.0
 30
0.0
 11
99.0
 21
166.0
 31
0.0
  0
LINE
  8
L-ZISSEN
 10
163.0
 20
173.5
 30
0.0
 11
97.0
 21
173.5
 31
0.0
  0
LINE
  8
L-ZISSEN
 10
272.5
 20
166.0
 30
0.0
 11
272.5
 21
173.5
 31
0.0
  0
LINE
  8
L-ZISSEN
 10
327.5
 20
166.0
 30
0.0
 11
327.5
 21
173.5
 31
0.0
  0
LINE
  8
L-ZISSEN
 10
483.0
 20
173.5
 30
0.0
 11
417.0
 21
173.5
 31
0.0
  0
LINE
  8
L-ZISSEN
 10
481.0
 20
166.0
 30
0.0
 11
419.0
 21
166.0
 31
0.0
  0
LINE
  8
L-ZISSEN
 10
481.0
 20
166.0
 30
0.0
 11
481.0
 21
173.5
 31
0.0
  0
LINE
  8
L-ZISSEN
 10
471.0
 20
166.0
 30
0.0
 11
471.0
 21
173.5
 31
0.0
  0
LINE
  8
L-ZISSEN
 10
419.0
 20
166.0
 30
0.0
 11
419.0
 21
173.5
 31
0.0
  0
LINE
  8
L-ZISSEN
 10
429.0
 20
166.0
 30
0.0
 11
429.0
 21
173.5
 31
0.0
  0
CIRCLE
  8
L-ZISSEN
 10
130.0
 20
90.0
 30
0.0
 40
27.5
  0
CIRCLE
  8
L-ZISSEN
 10
130.0
 20
90.0
 30
0.0
 40
15.1455
  0
LINE
  8
L-ZISSEN
 10
97.0
 20
118.0
 30
0.0
 11
163.0
 21
118.0
 31
0.0
  0
LINE
  8
L-ZISSEN
 10
97.0
 20
57.0
 30
0.0
 11
97.0
 21
123.0
 31
0.0
  0
LINE
  8
L-ZISSEN
 10
97.0
 20
62.0
 30
0.0
 11
163.0
 21
62.0
 31
0.0
  0
LINE
  8
L-ZISSEN
 10
163.0
 20
57.0
 30
0.0
 11
163.0
 21
123.0
 31
0.0
  0
LINE
  8
L-ZISSEN
 10
186.0
 20
112.5
 30
0.0
 11
186.0
 21
67.5
 31
0.0
  0
LINE
  8
L-ZISSEN
 10
178.5
 20
112.5
 30
0.0
 11
186.0
 21
112.5
 31
0.0
  0
LINE
  8
L-ZISSEN
 10
178.5
 20
121.0
 30
0.0
 11
178.5
 21
111.0
 31
0.0
  0
LINE
  8
L-ZISSEN
 10
178.5
 20
111.0
 30
0.0
 11
171.0
 21
111.0
 31
0.0
  0
LINE
  8
L-ZISSEN
 10
178.5
 20
121.0
 30
0.0
 11
171.0
 21
121.0
 31
0.0
  0
LINE
  8
L-ZISSEN
 10
178.5
 20
59.0
 30
0.0
 11
171.0
 21
59.0
 31
0.0
  0
LINE
  8
L-ZISSEN
 10
178.5
 20
69.0
 30
0.0
 11
171.0
 21
69.0
 31
0.0
  0
LINE
  8
L-ZISSEN
 10
178.5
 20
59.0
 30
0.0
 11
178.5
 21
69.0
 31
0.0
  0
LINE
  8
L-ZISSEN
 10
178.5
 20
67.5
 30
0.0
 11
186.0
 21
67.5
 31
0.0
  0
LINE
  8
L-TYUSIN
  6
CENTER
 62
     1
 10
73.5
 20
42.2
 30
0.0
 11
73.5
 21
29.0
 31
0.0
  0
LINE
  8
L-TYUSIN
  6
CENTER
 62
     1
 10
186.5
 20
42.2
 30
0.0
 11
186.5
 21
29.0
 31
0.0
  0
LINE
  8
L-ZISSEN
 10
107.0
 20
123.0
 30
0.0
 11
107.0
 21
121.5
 31
0.0
  0
LINE
  8
L-ZISSEN
 10
107.0
 20
57.0
 30
0.0
 11
107.0
 21
58.5
 31
0.0
  0
CIRCLE
  8
L-ZISSEN
 10
156.0
 20
112.0
 30
0.0
 40
5.0
  0
CIRCLE
  8
L-ZISSEN
 10
104.0
 20
112.0
 30
0.0
 40
5.0
  0
CIRCLE
  8
L-ZISSEN
 10
104.0
 20
68.0
 30
0.0
 40
5.0
  0
CIRCLE
  8
L-ZISSEN
 10
156.0
 20
68.0
 30
0.0
 40
5.0
  0
LINE
  8
L-ZISSEN
 10
154.0
 20
203.0
 30
0.0
 11
158.0
 21
203.0
 31
0.0
  0
LINE
  8
L-ZISSEN
 10
426.0
 20
203.0
 30
0.0
 11
422.0
 21
203.0
 31
0.0
  0
LINE
  8
L-ZISSEN
 10
145.0
 20
123.0
 30
0.0
 11
145.0
 21
121.5
 31
0.0
  0
LINE
  8
L-ZISSEN
 10
145.0
 20
58.5
 30
0.0
 11
145.0
 21
57.0
 31
0.0
  0
LINE
  8
L-ZISSEN
 10
145.0
 20
334.5
 30
0.0
 11
145.0
 21
336.0
 31
0.0
  0
LINE
  8
L-ZISSEN
 10
145.0
 20
399.0
 30
0.0
 11
145.0
 21
400.5
 31
0.0
  0
ENDSEC
  0
EOF
