  0
SECTION
  2
HEADER
  9
$ACADVER
  1
AC1032
  9
$ACADMAINTVER
 90
       55
  9
$DWGCODEPAGE
  3
ANSI_932
  9
$LASTSAVEDBY
  1
k-akaba
  9
$REQUIREDVERSIONS
160
                 0
  9
$INSBASE
 10
0.0
 20
0.0
 30
0.0
  9
$EXTMIN
 10
24.885418538679
 20
26.0
 30
0.0
  9
$EXTMAX
 10
580.4999999999999
 20
656.0
 30
0.0
  9
$LIMMIN
 10
0.0
 20
0.0
  9
$LIMMAX
 10
12.0
 20
9.0
  9
$ORTHOMODE
 70
     1
  9
$REGENMODE
 70
     1
  9
$FILLMODE
 70
     1
  9
$QTEXTMODE
 70
     0
  9
$MIRRTEXT
 70
     1
  9
$LTSCALE
 40
1.0
  9
$ATTMODE
 70
     1
  9
$TEXTSIZE
 40
4.5
  9
$TRACEWID
 40
0.05
  9
$TEXTSTYLE
  7
STANDARD
  9
$CLAYER
  8
L-TYUSIN
  9
$CELTYPE
  6
ByLayer
  9
$CECOLOR
 62
   256
  9
$CELTSCALE
 40
1.0
  9
$DISPSILH
 70
     0
  9
$DIMSCALE
 40
1.0
  9
$DIMASZ
 40
2.0
  9
$DIMEXO
 40
1.0
  9
$DIMDLI
 40
0.38
  9
$DIMRND
 40
0.0
  9
$DIMDLE
 40
0.0
  9
$DIMEXE
 40
1.0
  9
$DIMTP
 40
0.0
  9
$DIMTM
 40
0.0
  9
$DIMTXT
 40
2.5
  9
$DIMCEN
 40
0.09
  9
$DIMTSZ
 40
0.0
  9
$DIMTOL
 70
     0
  9
$DIMLIM
 70
     0
  9
$DIMTIH
 70
     0
  9
$DIMTOH
 70
     0
  9
$DIMSE1
 70
     0
  9
$DIMSE2
 70
     0
  9
$DIMTAD
 70
     1
  9
$DIMZIN
 70
     0
  9
$DIMBLK
  1

  9
$DIMASO
 70
     1
  9
$DIMSHO
 70
     0
  9
$DIMPOST
  1

  9
$DIMAPOST
  1

  9
$DIMALT
 70
     0
  9
$DIMALTD
 70
     2
  9
$DIMALTF
 40
25.4
  9
$DIMLFAC
 40
1.0
  9
$DIMTOFL
 70
     1
  9
$DIMTVP
 40
0.0
  9
$DIMTIX
 70
     0
  9
$DIMSOXD
 70
     0
  9
$DIMSAH
 70
     0
  9
$DIMBLK1
  1

  9
$DIMBLK2
  1

  9
$DIMSTYLE
  2
Standard
  9
$DIMCLRD
 70
     0
  9
$DIMCLRE
 70
     0
  9
$DIMCLRT
 70
     0
  9
$DIMTFAC
 40
1.0
  9
$DIMGAP
 40
0.09
  9
$DIMJUST
 70
     0
  9
$DIMSD1
 70
     0
  9
$DIMSD2
 70
     0
  9
$DIMTOLJ
 70
     1
  9
$DIMTZIN
 70
     0
  9
$DIMALTZ
 70
     0
  9
$DIMALTTZ
 70
     0
  9
$DIMUPT
 70
     0
  9
$DIMDEC
 70
     4
  9
$DIMTDEC
 70
     4
  9
$DIMALTU
 70
     2
  9
$DIMALTTD
 70
     2
  9
$DIMTXSTY
  7
STANDARD
  9
$DIMAUNIT
 70
     0
  9
$DIMADEC
 70
     0
  9
$DIMALTRND
 40
0.0
  9
$DIMAZIN
 70
     0
  9
$DIMDSEP
 70
    46
  9
$DIMATFIT
 70
     3
  9
$DIMFRAC
 70
     0
  9
$DIMLDRBLK
  1

  9
$DIMLUNIT
 70
     2
  9
$DIMLWD
 70
    -2
  9
$DIMLWE
 70
    -2
  9
$DIMTMOVE
 70
     2
  9
$DIMFXL
 40
1.0
  9
$DIMFXLON
 70
     0
  9
$DIMJOGANG
 40
0.7853981633974483
  9
$DIMTFILL
 70
     0
  9
$DIMTFILLCLR
 70
     0
  9
$DIMARCSYM
 70
     0
  9
$DIMLTYPE
  6

  9
$DIMLTEX1
  6

  9
$DIMLTEX2
  6

  9
$DIMTXTDIRECTION
 70
     0
  9
$LUNITS
 70
     2
  9
$LUPREC
 70
     4
  9
$SKETCHINC
 40
0.1
  9
$FILLETRAD
 40
0.0
  9
$AUNITS
 70
     0
  9
$AUPREC
 70
     0
  9
$MENU
  1
acad
  9
$ELEVATION
 40
0.0
  9
$PELEVATION
 40
0.0
  9
$THICKNESS
 40
0.0
  9
$LIMCHECK
 70
     0
  9
$CHAMFERA
 40
0.0
  9
$CHAMFERB
 40
0.0
  9
$CHAMFERC
 40
0.0
  9
$CHAMFERD
 40
0.0
  9
$SKPOLY
 70
     0
  9
$TDCREATE
 40
2449263.947034364
  9
$TDUCREATE
 40
2449263.572034364
  9
$TDUPDATE
 40
2460468.730250602
  9
$TDUUPDATE
 40
2460468.355250602
  9
$TDINDWG
 40
0.0007775231
  9
$TDUSRTIMER
 40
0.0001162616
  9
$USRTIMER
 70
     1
  9
$ANGBASE
 50
0.0
  9
$ANGDIR
 70
     0
  9
$PDMODE
 70
     0
  9
$PDSIZE
 40
0.0
  9
$PLINEWID
 40
0.0
  9
$SPLFRAME
 70
     0
  9
$SPLINETYPE
 70
     6
  9
$SPLINESEGS
 70
     8
  9
$HANDSEED
  5
1A5
  9
$SURFTAB1
 70
     6
  9
$SURFTAB2
 70
     6
  9
$SURFTYPE
 70
     6
  9
$SURFU
 70
     6
  9
$SURFV
 70
     6
  9
$UCSBASE
  2

  9
$UCSNAME
  2

  9
$UCSORG
 10
0.0
 20
0.0
 30
0.0
  9
$UCSXDIR
 10
1.0
 20
0.0
 30
0.0
  9
$UCSYDIR
 10
0.0
 20
1.0
 30
0.0
  9
$UCSORTHOREF
  2

  9
$UCSORTHOVIEW
 70
     0
  9
$UCSORGTOP
 10
0.0
 20
0.0
 30
0.0
  9
$UCSORGBOTTOM
 10
0.0
 20
0.0
 30
0.0
  9
$UCSORGLEFT
 10
0.0
 20
0.0
 30
0.0
  9
$UCSORGRIGHT
 10
0.0
 20
0.0
 30
0.0
  9
$UCSORGFRONT
 10
0.0
 20
0.0
 30
0.0
  9
$UCSORGBACK
 10
0.0
 20
0.0
 30
0.0
  9
$PUCSBASE
  2

  9
$PUCSNAME
  2

  9
$PUCSORG
 10
0.0
 20
0.0
 30
0.0
  9
$PUCSXDIR
 10
1.0
 20
0.0
 30
0.0
  9
$PUCSYDIR
 10
0.0
 20
1.0
 30
0.0
  9
$PUCSORTHOREF
  2

  9
$PUCSORTHOVIEW
 70
     0
  9
$PUCSORGTOP
 10
0.0
 20
0.0
 30
0.0
  9
$PUCSORGBOTTOM
 10
0.0
 20
0.0
 30
0.0
  9
$PUCSORGLEFT
 10
0.0
 20
0.0
 30
0.0
  9
$PUCSORGRIGHT
 10
0.0
 20
0.0
 30
0.0
  9
$PUCSORGFRONT
 10
0.0
 20
0.0
 30
0.0
  9
$PUCSORGBACK
 10
0.0
 20
0.0
 30
0.0
  9
$USERI1
 70
     0
  9
$USERI2
 70
     0
  9
$USERI3
 70
     0
  9
$USERI4
 70
     0
  9
$USERI5
 70
     0
  9
$USERR1
 40
0.0
  9
$USERR2
 40
0.0
  9
$USERR3
 40
0.0
  9
$USERR4
 40
0.0
  9
$USERR5
 40
0.0
  9
$WORLDVIEW
 70
     1
  9
$SHADEDGE
 70
     3
  9
$SHADEDIF
 70
    70
  9
$TILEMODE
 70
     1
  9
$MAXACTVP
 70
    64
  9
$PINSBASE
 10
0.0
 20
0.0
 30
0.0
  9
$PLIMCHECK
 70
     0
  9
$PEXTMIN
 10
1.000000000000000E+20
 20
1.000000000000000E+20
 30
1.000000000000000E+20
  9
$PEXTMAX
 10
-1.000000000000000E+20
 20
-1.000000000000000E+20
 30
-1.000000000000000E+20
  9
$PLIMMIN
 10
0.0
 20
0.0
  9
$PLIMMAX
 10
0.0
 20
0.0
  9
$UNITMODE
 70
     0
  9
$VISRETAIN
 70
     1
  9
$PLINEGEN
 70
     0
  9
$PSLTSCALE
 70
     0
  9
$TREEDEPTH
 70
  3020
  9
$CMLSTYLE
  2
Standard
  9
$CMLJUST
 70
     0
  9
$CMLSCALE
 40
1.0
  9
$PROXYGRAPHICS
 70
     1
  9
$MEASUREMENT
 70
     0
  9
$CELWEIGHT
370
    -1
  9
$ENDCAPS
280
     0
  9
$JOINSTYLE
280
     0
  9
$LWDISPLAY
290
     0
  9
$INSUNITS
 70
     0
  9
$HYPERLINKBASE
  1

  9
$STYLESHEET
  1

  9
$XEDIT
290
     1
  9
$CEPSNTYPE
380
     0
  9
$PSTYLEMODE
290
     1
  9
$FINGERPRINTGUID
  2
{5065e5e9-99c0-4666-95fd-14f5ffa203ef}
  9
$VERSIONGUID
  2
{FAEB1C32-E019-11D5-929B-00C0DF256EC4}
  9
$EXTNAMES
290
     1
  9
$PSVPSCALE
 40
0.0
  9
$OLESTARTUP
290
     0
  9
$SORTENTS
280
   127
  9
$INDEXCTL
280
     0
  9
$HIDETEXT
280
     1
  9
$XCLIPFRAME
280
     2
  9
$HALOGAP
280
     0
  9
$OBSCOLOR
 70
   257
  9
$OBSLTYPE
280
     0
  9
$INTERSECTIONDISPLAY
280
     0
  9
$INTERSECTIONCOLOR
 70
   257
  9
$DIMASSOC
280
     2
  9
$PROJECTNAME
  1

  9
$CAMERADISPLAY
290
     0
  9
$LENSLENGTH
 40
50.0
  9
$CAMERAHEIGHT
 40
0.0
  9
$STEPSPERSEC
 40
2.0
  9
$STEPSIZE
 40
6.0
  9
$3DDWFPREC
 40
2.0
  9
$PSOLWIDTH
 40
0.25
  9
$PSOLHEIGHT
 40
4.0
  9
$LOFTANG1
 40
1.570796326794897
  9
$LOFTANG2
 40
1.570796326794897
  9
$LOFTMAG1
 40
0.0
  9
$LOFTMAG2
 40
0.0
  9
$LOFTPARAM
 70
     7
  9
$LOFTNORMALS
280
     1
  9
$LATITUDE
 40
37.795
  9
$LONGITUDE
 40
-122.394
  9
$NORTHDIRECTION
 40
0.0
  9
$TIMEZONE
 70
 -8000
  9
$LIGHTGLYPHDISPLAY
280
     1
  9
$TILEMODELIGHTSYNCH
280
     1
  9
$SOLIDHIST
280
     0
  9
$SHOWHIST
280
     1
  9
$DWFFRAME
280
     2
  9
$DGNFRAME
280
     2
  9
$REALWORLDSCALE
290
     1
  9
$INTERFERECOLOR
 62
   256
  9
$CSHADOW
280
     0
  9
$SHADOWPLANELOCATION
 40
0.0
  0
ENDSEC
  0
SECTION
  2
CLASSES
  0
CLASS
  1
ACDBDICTIONARYWDFLT
  2
AcDbDictionaryWithDefault
  3
ObjectDBX Classes
 90
        0
 91
        3
280
     0
281
     0
  0
CLASS
  1
SCALE
  2
AcDbScale
  3
ObjectDBX Classes
 90
     1153
 91
        3
280
     0
281
     0
  0
CLASS
  1
VISUALSTYLE
  2
AcDbVisualStyle
  3
ObjectDBX Classes
 90
     4095
 91
        3
280
     0
281
     0
  0
CLASS
  1
MATERIAL
  2
AcDbMaterial
  3
ObjectDBX Classes
 90
     1153
 91
        3
280
     0
281
     0
  0
CLASS
  1
TABLESTYLE
  2
AcDbTableStyle
  3
ObjectDBX Classes
 90
     4095
 91
        3
280
     0
281
     0
  0
CLASS
  1
MLEADERSTYLE
  2
AcDbMLeaderStyle
  3
ACDB_MLEADERSTYLE_CLASS
 90
     4095
 91
        3
280
     0
281
     0
  0
CLASS
  1
DICTIONARYVAR
  2
AcDbDictionaryVar
  3
ObjectDBX Classes
 90
        0
 91
        3
280
     0
281
     0
  0
CLASS
  1
SUN
  2
AcDbSun
  3
SCENEOE
 90
     1153
 91
        3
280
     0
281
     0
  0
CLASS
  1
CELLSTYLEMAP
  2
AcDbCellStyleMap
  3
ObjectDBX Classes
 90
     1152
 91
        3
280
     0
281
     0
  0
ENDSEC
  0
SECTION
  2
TABLES
  0
TABLE
  2
VPORT
  5
8
330
0
100
AcDbSymbolTable
 70
     1
  0
VPORT
  5
21
330
8
100
AcDbSymbolTableRecord
100
AcDbViewportTableRecord
  2
*ACTIVE
 70
     0
 10
0.0
 20
0.0
 11
1.0
 21
1.0
 12
302.6927092693394
 22
341.0
 13
0.0
 23
0.0
 14
1.0
 24
1.0
 15
0.0
 25
0.0
 16
0.0
 26
0.0
 36
1.0
 17
0.0
 27
0.0
 37
0.0
 40
642.6
 41
2.120056497175141
 42
50.0
 43
0.0
 44
0.0
 50
0.0
 51
0.0
 71
    16
 72
   100
 73
     1
 74
     0
 75
     0
 76
     0
 77
     0
 78
     0
281
     0
 65
     0
110
0.0
120
0.0
130
0.0
111
1.0
121
0.0
131
0.0
112
0.0
122
1.0
132
0.0
 79
     0
146
0.0
348
176
 60
     3
 61
     5
292
     1
282
     1
141
0.0
142
0.0
 63
   256
361
19B
  0
ENDTAB
  0
TABLE
  2
LTYPE
  5
5
330
0
100
AcDbSymbolTable
 70
     2
  0
LTYPE
  5
10
330
5
100
AcDbSymbolTableRecord
100
AcDbLinetypeTableRecord
  2
ByBlock
 70
     0
  3

 72
    65
 73
     0
 40
0.0
  0
LTYPE
  5
11
330
5
100
AcDbSymbolTableRecord
100
AcDbLinetypeTableRecord
  2
ByLayer
 70
     0
  3

 72
    65
 73
     0
 40
0.0
  0
LTYPE
  5
1B
330
5
100
AcDbSymbolTableRecord
100
AcDbLinetypeTableRecord
  2
CONTINUOUS
 70
     0
  3
Solid line
 72
    65
 73
     0
 40
0.0
  0
LTYPE
  5
1C
330
5
100
AcDbSymbolTableRecord
100
AcDbLinetypeTableRecord
  2
CENTER
 70
     0
  3
____ _ ____ _ ____
 72
    65
 73
     4
 40
8.0
 49
5.0
 74
     0
 49
-1.0
 74
     0
 49
1.0
 74
     0
 49
-1.0
 74
     0
  0
ENDTAB
  0
TABLE
  2
LAYER
  5
2
330
0
100
AcDbSymbolTable
 70
     3
  0
LAYER
  5
1D
330
2
100
AcDbSymbolTableRecord
100
AcDbLayerTableRecord
  2
0
 70
     0
 62
     7
  6
CONTINUOUS
370
    -3
390
F
347
18D
348
0
  0
LAYER
  5
1E
330
2
100
AcDbSymbolTableRecord
100
AcDbLayerTableRecord
  2
L-ZISSEN
 70
     0
 62
     7
  6
CONTINUOUS
370
    -3
390
F
347
18D
348
0
  0
LAYER
  5
1F
330
2
100
AcDbSymbolTableRecord
100
AcDbLayerTableRecord
  2
L-TYUSIN
 70
     0
 62
     1
  6
CENTER
370
    -3
390
F
347
18D
348
0
  0
ENDTAB
  0
TABLE
  2
STYLE
  5
3
330
0
100
AcDbSymbolTable
 70
     1
  0
STYLE
  5
22
330
3
100
AcDbSymbolTableRecord
100
AcDbTextStyleTableRecord
  2
STANDARD
 70
     0
 40
0.0
 41
1.0
 50
0.0
 71
     0
 42
4.5
  3
txt
  4

  0
ENDTAB
  0
TABLE
  2
VIEW
  5
6
330
0
100
AcDbSymbolTable
 70
     0
  0
ENDTAB
  0
TABLE
  2
UCS
  5
7
330
0
100
AcDbSymbolTable
 70
     0
  0
ENDTAB
  0
TABLE
  2
APPID
  5
9
330
0
100
AcDbSymbolTable
 70
     2
  0
APPID
  5
23
330
9
100
AcDbSymbolTableRecord
100
AcDbRegAppTableRecord
  2
ACAD
 70
     0
  0
APPID
  5
19D
330
9
100
AcDbSymbolTableRecord
100
AcDbRegAppTableRecord
  2
PLOTTRANSPARENCY
 70
     0
  0
ENDTAB
  0
TABLE
  2
DIMSTYLE
  5
A
330
0
100
AcDbSymbolTable
 70
     1
100
AcDbDimStyleTable
  0
DIMSTYLE
105
24
330
A
100
AcDbSymbolTableRecord
100
AcDbDimStyleTableRecord
  2
Standard
 70
     0
178
     0
340
22
  0
ENDTAB
  0
TABLE
  2
BLOCK_RECORD
  5
1
330
0
100
AcDbSymbolTable
 70
     0
  0
BLOCK_RECORD
  5
18
330
1
100
AcDbSymbolTableRecord
100
AcDbBlockTableRecord
  2
*Model_Space
340
19
 70
     0
280
     1
281
     0
  0
BLOCK_RECORD
  5
16
330
1
100
AcDbSymbolTableRecord
100
AcDbBlockTableRecord
  2
*Paper_Space
340
17
 70
     0
280
     1
281
     0
  0
ENDTAB
  0
ENDSEC
  0
SECTION
  2
BLOCKS
  0
BLOCK
  5
14D
330
18
100
AcDbEntity
  8
0
100
AcDbBlockBegin
  2
*Model_Space
 70
     0
 10
0.0
 20
0.0
 30
0.0
  3
*Model_Space
  1

  0
ENDBLK
  5
14E
330
18
100
AcDbEntity
  8
0
100
AcDbBlockEnd
  0
BLOCK
  5
14B
330
16
100
AcDbEntity
 67
     1
  8
0
100
AcDbBlockBegin
  2
*Paper_Space
 70
     0
 10
0.0
 20
0.0
 30
0.0
  3
*Paper_Space
  1

  0
ENDBLK
  5
14C
330
16
100
AcDbEntity
 67
     1
  8
0
100
AcDbBlockEnd
  0
ENDSEC
  0
SECTION
  2
ENTITIES
  0
TEXT
  5
25
330
18
100
AcDbEntity
  8
L-ZISSEN
100
AcDbText
 10
24.88541853867898
 20
624.8172950554267
 30
0.0
 40
4.5
  1
MVS-3514YCL
100
AcDbText
  0
TEXT
  5
26
330
18
100
AcDbEntity
  8
L-ZISSEN
100
AcDbText
 10
25.6219773993298
 20
632.0136486913141
 30
0.0
 40
4.5
  1
MVS-3512YCL
100
AcDbText
  0
LINE
  5
27
330
18
100
AcDbEntity
  8
L-ZISSEN
100
AcDbLine
 10
124.9
 20
534.7
 30
0.0
 11
124.9
 21
541.0
 31
0.0
  0
LINE
  5
28
330
18
100
AcDbEntity
  8
L-ZISSEN
100
AcDbLine
 10
134.1
 20
534.7
 30
0.0
 11
124.9
 21
534.7
 31
0.0
  0
LINE
  5
29
330
18
100
AcDbEntity
  8
L-ZISSEN
100
AcDbLine
 10
134.1
 20
541.0
 30
0.0
 11
134.1
 21
534.7
 31
0.0
  0
LINE
  5
2A
330
18
100
AcDbEntity
  8
L-ZISSEN
100
AcDbLine
 10
324.9
 20
541.0
 30
0.0
 11
324.9
 21
534.7
 31
0.0
  0
LINE
  5
2B
330
18
100
AcDbEntity
  8
L-ZISSEN
100
AcDbLine
 10
324.9
 20
534.7
 30
0.0
 11
334.1
 21
534.7
 31
0.0
  0
LINE
  5
2C
330
18
100
AcDbEntity
  8
L-ZISSEN
100
AcDbLine
 10
334.1
 20
534.7
 30
0.0
 11
334.1
 21
541.0
 31
0.0
  0
LINE
  5
2D
330
18
100
AcDbEntity
  8
L-ZISSEN
100
AcDbLine
 10
337.4999999999998
 20
541.0
 30
0.0
 11
269.5000000000002
 21
541.0
 31
0.0
  0
LINE
  5
2E
330
18
100
AcDbEntity
  8
L-ZISSEN
100
AcDbLine
 10
189.4999999999998
 20
541.0
 30
0.0
 11
121.5
 21
541.0
 31
0.0
  0
LINE
  5
2F
330
18
100
AcDbEntity
  8
L-ZISSEN
100
AcDbLine
 10
189.4999999999998
 20
544.0
 30
0.0
 11
121.5
 21
544.0
 31
0.0
  0
LINE
  5
30
330
18
100
AcDbEntity
  8
L-ZISSEN
100
AcDbLine
 10
121.5
 20
541.0
 30
0.0
 11
121.5
 21
555.0
 31
0.0
  0
LINE
  5
31
330
18
100
AcDbEntity
  8
L-ZISSEN
100
AcDbLine
 10
337.4999999999998
 20
544.0
 30
0.0
 11
269.5000000000002
 21
544.0
 31
0.0
  0
LINE
  5
32
330
18
100
AcDbEntity
  8
L-ZISSEN
100
AcDbLine
 10
337.4999999999998
 20
555.0
 30
0.0
 11
337.4999999999998
 21
541.0
 31
0.0
  0
LINE
  5
33
330
18
100
AcDbEntity
  8
L-ZISSEN
100
AcDbLine
 10
337.4999999999999
 20
544.0
 30
0.0
 11
337.4999999999998
 21
555.0
 31
0.0
  0
LINE
  5
34
330
18
100
AcDbEntity
  8
L-ZISSEN
100
AcDbLine
 10
353.5434782608696
 20
645.0000000000001
 30
0.0
 11
359.5000000000001
 21
645.0000000000001
 31
0.0
  0
LINE
  5
35
330
18
100
AcDbEntity
  8
L-ZISSEN
100
AcDbLine
 10
110.4565217391304
 20
645.0000000000001
 30
0.0
 11
99.49999999999989
 21
645.0000000000001
 31
0.0
  0
LINE
  5
36
330
18
100
AcDbEntity
  8
L-ZISSEN
100
AcDbLine
 10
99.49999999999989
 20
554.9999999999999
 30
0.0
 11
99.49999999999989
 21
645.0000000000001
 31
0.0
  0
LINE
  5
37
330
18
100
AcDbEntity
  8
L-ZISSEN
100
AcDbLine
 10
359.5
 20
555.0
 30
0.0
 11
359.5000000000001
 21
645.0000000000001
 31
0.0
  0
CIRCLE
  5
38
330
18
100
AcDbEntity
  8
L-ZISSEN
100
AcDbCircle
 10
529.5
 20
60.99999999999999
 30
0.0
 40
9.3155
  0
CIRCLE
  5
39
330
18
100
AcDbEntity
  8
L-ZISSEN
100
AcDbCircle
 10
529.5
 20
60.99999999999999
 30
0.0
 40
14.0
  0
LINE
  5
3A
330
18
100
AcDbEntity
  8
L-TYUSIN
100
AcDbLine
 10
511.5
 20
61.0
 30
0.0
 11
547.5
 21
61.0
 31
0.0
  0
LINE
  5
3B
330
18
100
AcDbEntity
  8
L-TYUSIN
100
AcDbLine
 10
136.5
 20
61.0
 30
0.0
 11
116.5000000000001
 21
61.0
 31
0.0
  0
LINE
  5
3C
330
18
100
AcDbEntity
  8
L-TYUSIN
100
AcDbLine
 10
322.5
 20
61.0
 30
0.0
 11
342.4999999999999
 21
61.0
 31
0.0
  0
LINE
  5
3D
330
18
100
AcDbEntity
  8
L-ZISSEN
100
AcDbLine
 10
470.5000000000001
 20
52.60000000000002
 30
0.0
 11
464.2000000000001
 21
52.60000000000002
 31
0.0
  0
LINE
  5
3E
330
18
100
AcDbEntity
  8
L-ZISSEN
100
AcDbLine
 10
464.2000000000001
 20
52.60000000000002
 30
0.0
 11
464.2000000000001
 21
43.39999999999998
 31
0.0
  0
LINE
  5
3F
330
18
100
AcDbEntity
  8
L-ZISSEN
100
AcDbLine
 10
464.2000000000001
 20
43.39999999999998
 30
0.0
 11
470.5000000000001
 21
43.39999999999998
 31
0.0
  0
LINE
  5
40
330
18
100
AcDbEntity
  8
L-ZISSEN
100
AcDbLine
 10
464.2000000000001
 20
155.4
 30
0.0
 11
470.5000000000001
 21
155.4
 31
0.0
  0
LINE
  5
41
330
18
100
AcDbEntity
  8
L-ZISSEN
100
AcDbLine
 10
464.2000000000001
 20
164.6
 30
0.0
 11
464.2000000000001
 21
155.4
 31
0.0
  0
LINE
  5
42
330
18
100
AcDbEntity
  8
L-ZISSEN
100
AcDbLine
 10
470.5000000000001
 20
164.6
 30
0.0
 11
464.2000000000001
 21
164.6
 31
0.0
  0
LINE
  5
43
330
18
100
AcDbEntity
  8
L-ZISSEN
100
AcDbLine
 10
470.5000000000001
 20
168.0
 30
0.0
 11
470.5000000000001
 21
40.0
 31
0.0
  0
LINE
  5
44
330
18
100
AcDbEntity
  8
L-ZISSEN
100
AcDbLine
 10
484.5000000000001
 20
40.0
 30
0.0
 11
484.5
 21
37.0
 31
0.0
  0
LINE
  5
45
330
18
100
AcDbEntity
  8
L-ZISSEN
100
AcDbLine
 10
470.5000000000001
 20
40.0
 30
0.0
 11
484.5000000000001
 21
40.0
 31
0.0
  0
LINE
  5
46
330
18
100
AcDbEntity
  8
L-ZISSEN
100
AcDbLine
 10
470.5000000000001
 20
168.0
 30
0.0
 11
484.5
 21
168.0
 31
0.0
  0
LINE
  5
47
330
18
100
AcDbEntity
  8
L-ZISSEN
100
AcDbLine
 10
473.5000000000001
 20
168.0
 30
0.0
 11
473.5000000000001
 21
40.0
 31
0.0
  0
LINE
  5
48
330
18
100
AcDbEntity
  8
L-ZISSEN
100
AcDbLine
 10
484.5
 20
37.0
 30
0.0
 11
574.5000000000001
 21
37.0
 31
0.0
  0
LINE
  5
49
330
18
100
AcDbEntity
  8
L-ZISSEN
100
AcDbLine
 10
484.5000000000001
 20
171.0
 30
0.0
 11
574.5000000000001
 21
171.0
 31
0.0
  0
LINE
  5
4A
330
18
100
AcDbEntity
  8
L-ZISSEN
100
AcDbLine
 10
132.5
 20
40.0
 30
0.0
 11
121.5
 21
168.0
 31
0.0
  0
CIRCLE
  5
4B
330
18
100
AcDbEntity
  8
L-ZISSEN
100
AcDbCircle
 10
139.5
 20
47.99999999999999
 30
0.0
 40
4.6
  0
CIRCLE
  5
4C
330
18
100
AcDbEntity
  8
L-ZISSEN
100
AcDbCircle
 10
319.5
 20
47.99999999999999
 30
0.0
 40
4.6
  0
CIRCLE
  5
4D
330
18
100
AcDbEntity
  8
L-ZISSEN
100
AcDbCircle
 10
129.5000000000001
 20
160.0
 30
0.0
 40
4.6
  0
CIRCLE
  5
4E
330
18
100
AcDbEntity
  8
L-ZISSEN
100
AcDbCircle
 10
329.5
 20
160.0
 30
0.0
 40
4.6
  0
CIRCLE
  5
4F
330
18
100
AcDbEntity
  8
L-ZISSEN
100
AcDbCircle
 10
229.5
 20
160.0
 30
0.0
 40
4.6
  0
LINE
  5
50
330
18
100
AcDbEntity
  8
L-ZISSEN
100
AcDbLine
 10
326.5
 20
40.0
 30
0.0
 11
337.5
 21
168.0
 31
0.0
  0
LINE
  5
51
330
18
100
AcDbEntity
  8
L-ZISSEN
100
AcDbLine
 10
132.5
 20
40.0
 30
0.0
 11
326.5
 21
40.0
 31
0.0
  0
LINE
  5
52
330
18
100
AcDbEntity
  8
L-ZISSEN
100
AcDbLine
 10
121.5
 20
168.0
 30
0.0
 11
337.5
 21
168.0
 31
0.0
  0
LINE
  5
53
330
18
100
AcDbEntity
  8
L-ZISSEN
100
AcDbLine
 10
339.9
 20
156.0
 30
0.0
 11
359.5
 21
156.0
 31
0.0
  0
LINE
  5
54
330
18
100
AcDbEntity
  8
L-ZISSEN
100
AcDbLine
 10
330.373949579832
 20
47.0
 30
0.0
 11
337.4999999999999
 21
47.0
 31
0.0
  0
LINE
  5
55
330
18
100
AcDbEntity
  8
L-ZISSEN
100
AcDbLine
 10
332.8210084033614
 20
75.0
 30
0.0
 11
337.4999999999999
 21
75.0
 31
0.0
  0
LINE
  5
56
330
18
100
AcDbEntity
  8
L-ZISSEN
100
AcDbLine
 10
337.5
 20
47.0
 30
0.0
 11
337.4999999999999
 21
75.0
 31
0.0
  0
LINE
  5
57
330
18
100
AcDbEntity
  8
L-ZISSEN
100
AcDbLine
 10
121.5
 20
47.0
 30
0.0
 11
121.5000000000001
 21
75.0
 31
0.0
  0
LINE
  5
58
330
18
100
AcDbEntity
  8
L-ZISSEN
100
AcDbLine
 10
126.1789915966386
 20
75.0
 30
0.0
 11
121.5000000000001
 21
75.0
 31
0.0
  0
LINE
  5
59
330
18
100
AcDbEntity
  8
L-ZISSEN
100
AcDbLine
 10
128.626050420168
 20
47.0
 30
0.0
 11
121.5000000000001
 21
47.0
 31
0.0
  0
LINE
  5
5A
330
18
100
AcDbEntity
  8
L-ZISSEN
100
AcDbLine
 10
329.5000000000001
 20
37.0
 30
0.0
 11
339.9
 21
156.0
 31
0.0
  0
LINE
  5
5B
330
18
100
AcDbEntity
  8
L-ZISSEN
100
AcDbLine
 10
129.4999999999999
 20
37.0
 30
0.0
 11
119.1
 21
156.0
 31
0.0
  0
LINE
  5
5C
330
18
100
AcDbEntity
  8
L-ZISSEN
100
AcDbLine
 10
99.49999999999989
 20
180.0
 30
0.0
 11
134.5
 21
180.0
 31
0.0
  0
LINE
  5
5D
330
18
100
AcDbEntity
  8
L-ZISSEN
100
AcDbLine
 10
99.49999999999989
 20
156.0
 30
0.0
 11
99.49999999999989
 21
180.0
 31
0.0
  0
LINE
  5
5E
330
18
100
AcDbEntity
  8
L-ZISSEN
100
AcDbLine
 10
359.5
 20
180.0
 30
0.0
 11
324.5000000000002
 21
180.0
 31
0.0
  0
LINE
  5
5F
330
18
100
AcDbEntity
  8
L-ZISSEN
100
AcDbLine
 10
359.5
 20
156.0
 30
0.0
 11
359.5
 21
180.0
 31
0.0
  0
LINE
  5
60
330
18
100
AcDbEntity
  8
L-ZISSEN
100
AcDbLine
 10
99.49999999999989
 20
171.0
 30
0.0
 11
359.5
 21
171.0
 31
0.0
  0
LINE
  5
61
330
18
100
AcDbEntity
  8
L-ZISSEN
100
AcDbLine
 10
129.4999999999999
 20
37.0
 30
0.0
 11
329.5000000000001
 21
37.0
 31
0.0
  0
LINE
  5
62
330
18
100
AcDbEntity
  8
L-ZISSEN
100
AcDbLine
 10
99.49999999999989
 20
156.0
 30
0.0
 11
119.1
 21
156.0
 31
0.0
  0
CIRCLE
  5
63
330
18
100
AcDbEntity
  8
L-ZISSEN
100
AcDbCircle
 10
529.5
 20
250.0
 30
0.0
 40
19.476
  0
CIRCLE
  5
64
330
18
100
AcDbEntity
  8
L-ZISSEN
100
AcDbCircle
 10
229.5
 20
278.0000000000001
 30
0.0
 40
28.328
  0
TEXT
  5
65
330
18
100
AcDbEntity
  8
L-ZISSEN
100
AcDbText
 10
393.2759015425179
 20
194.3319034439069
 30
0.0
 40
4.5
  1
Rc1-1/2
100
AcDbText
  0
TEXT
  5
66
330
18
100
AcDbEntity
  8
L-ZISSEN
100
AcDbText
 10
393.1319541266681
 20
202.5956147792652
 30
0.0
 40
4.5
  1
Rc1-1/4
100
AcDbText
  0
TEXT
  5
67
330
18
100
AcDbEntity
  8
L-ZISSEN
100
AcDbText
 10
392.4122170474192
 20
209.1010896602919
 30
0.0
 40
4.5
  1
IN
100
AcDbText
  0
LINE
  5
68
330
18
100
AcDbEntity
  8
L-ZISSEN
100
AcDbLine
 10
389.6205900233479
 20
210.802020630186
 30
0.0
 11
391.6205900233479
 21
210.802020630186
 31
0.0
  0
LINE
  5
69
330
18
100
AcDbEntity
  8
L-ZISSEN
100
AcDbLine
 10
360.231217386603
 20
248.4238960228061
 30
0.0
 11
389.6205900233479
 21
210.802020630186
 31
0.0
  0
SOLID
  5
6A
330
18
100
AcDbEntity
  8
L-ZISSEN
100
AcDbTrace
 10
359.968533390404
 20
248.2186931250389
 30
0.0
 11
360.4939013828019
 21
248.6290989205733
 31
0.0
 12
358.9999999999999
 22
250.0
 32
0.0
 13
358.9999999999999
 23
250.0
 33
0.0
  0
CIRCLE
  5
6B
330
18
100
AcDbEntity
  8
L-ZISSEN
100
AcDbCircle
 10
144.4999999999999
 20
564.9999999999999
 30
0.0
 40
7.699999999999989
  0
CIRCLE
  5
6C
330
18
100
AcDbEntity
  8
L-ZISSEN
100
AcDbCircle
 10
144.4999999999999
 20
634.9999999999999
 30
0.0
 40
7.699999999999989
  0
CIRCLE
  5
6D
330
18
100
AcDbEntity
  8
L-ZISSEN
100
AcDbCircle
 10
314.5000000000001
 20
564.9999999999999
 30
0.0
 40
7.699999999999989
  0
CIRCLE
  5
6E
330
18
100
AcDbEntity
  8
L-ZISSEN
100
AcDbCircle
 10
314.5000000000001
 20
634.9999999999999
 30
0.0
 40
7.699999999999989
  0
LINE
  5
6F
330
18
100
AcDbEntity
  8
L-ZISSEN
  6
Continuous
 62
     7
100
AcDbLine
 10
572.2
 20
344.0
 30
0.0
 11
574.5000000000001
 21
344.0
 31
0.0
  0
LINE
  5
70
330
18
100
AcDbEntity
  8
L-ZISSEN
100
AcDbLine
 10
502.1999999999999
 20
338.0
 30
0.0
 11
502.1999999999999
 21
348.0
 31
0.0
  0
LINE
  5
71
330
18
100
AcDbEntity
  8
L-ZISSEN
100
AcDbLine
 10
502.1999999999999
 20
348.0
 30
0.0
 11
486.7999999999998
 21
348.0
 31
0.0
  0
LINE
  5
72
330
18
100
AcDbEntity
  8
L-ZISSEN
100
AcDbLine
 10
486.7999999999998
 20
348.0
 30
0.0
 11
486.7999999999998
 21
338.0
 31
0.0
  0
LINE
  5
73
330
18
100
AcDbEntity
  8
L-ZISSEN
100
AcDbLine
 10
572.2
 20
348.0
 30
0.0
 11
572.2
 21
338.0
 31
0.0
  0
LINE
  5
74
330
18
100
AcDbEntity
  8
L-ZISSEN
100
AcDbLine
 10
556.8
 20
348.0
 30
0.0
 11
572.2
 21
348.0
 31
0.0
  0
LINE
  5
75
330
18
100
AcDbEntity
  8
L-ZISSEN
100
AcDbLine
 10
556.8
 20
338.0
 30
0.0
 11
556.8
 21
348.0
 31
0.0
  0
LINE
  5
76
330
18
100
AcDbEntity
  8
L-ZISSEN
100
AcDbLine
 10
306.8000000000001
 20
338.0
 30
0.0
 11
306.8000000000001
 21
348.0
 31
0.0
  0
LINE
  5
77
330
18
100
AcDbEntity
  8
L-ZISSEN
100
AcDbLine
 10
306.8000000000001
 20
348.0
 30
0.0
 11
322.2
 21
348.0
 31
0.0
  0
LINE
  5
78
330
18
100
AcDbEntity
  8
L-ZISSEN
100
AcDbLine
 10
322.2
 20
348.0
 30
0.0
 11
322.2
 21
338.0
 31
0.0
  0
LINE
  5
79
330
18
100
AcDbEntity
  8
L-ZISSEN
100
AcDbLine
 10
136.8
 20
348.0
 30
0.0
 11
136.8
 21
338.0
 31
0.0
  0
LINE
  5
7A
330
18
100
AcDbEntity
  8
L-ZISSEN
100
AcDbLine
 10
152.1999999999999
 20
348.0
 30
0.0
 11
136.8
 21
348.0
 31
0.0
  0
LINE
  5
7B
330
18
100
AcDbEntity
  8
L-ZISSEN
100
AcDbLine
 10
152.1999999999999
 20
338.0
 30
0.0
 11
152.1999999999999
 21
348.0
 31
0.0
  0
LINE
  5
7C
330
18
100
AcDbEntity
  8
L-TYUSIN
100
AcDbLine
 10
123.5
 20
300.9999999999994
 30
0.0
 11
123.5
 21
271.0
 31
0.0
  0
LINE
  5
7D
330
18
100
AcDbEntity
  8
L-TYUSIN
100
AcDbLine
 10
138.5
 20
286.0
 30
0.0
 11
108.5
 21
286.0
 31
0.0
  0
CIRCLE
  5
7E
330
18
100
AcDbEntity
  8
L-ZISSEN
100
AcDbCircle
 10
123.5
 20
286.0
 30
0.0
 40
6.75
  0
LINE
  5
7F
330
18
100
AcDbEntity
  8
L-TYUSIN
100
AcDbLine
 10
123.5
 20
222.9999999999995
 30
0.0
 11
123.5
 21
193.0
 31
0.0
  0
LINE
  5
80
330
18
100
AcDbEntity
  8
L-TYUSIN
100
AcDbLine
 10
138.5
 20
208.0
 30
0.0
 11
108.5
 21
208.0
 31
0.0
  0
CIRCLE
  5
81
330
18
100
AcDbEntity
  8
L-ZISSEN
100
AcDbCircle
 10
123.5
 20
208.0
 30
0.0
 40
6.75
  0
LINE
  5
82
330
18
100
AcDbEntity
  8
L-TYUSIN
100
AcDbLine
 10
340.5
 20
222.9999999999995
 30
0.0
 11
340.5
 21
193.0
 31
0.0
  0
LINE
  5
83
330
18
100
AcDbEntity
  8
L-TYUSIN
100
AcDbLine
 10
355.5
 20
208.0
 30
0.0
 11
325.5
 21
208.0
 31
0.0
  0
CIRCLE
  5
84
330
18
100
AcDbEntity
  8
L-ZISSEN
100
AcDbCircle
 10
340.5
 20
208.0
 30
0.0
 40
6.75
  0
LINE
  5
85
330
18
100
AcDbEntity
  8
L-TYUSIN
100
AcDbLine
 10
445.5
 20
278.0000000000001
 30
0.0
 11
496.0412664750211
 21
278.0
 31
0.0
  0
LINE
  5
86
330
18
100
AcDbEntity
  8
L-TYUSIN
100
AcDbLine
 10
229.5
 20
511.0
 30
0.0
 11
229.5
 21
656.0
 31
0.0
  0
TEXT
  5
87
330
18
100
AcDbEntity
  8
L-ZISSEN
100
AcDbText
 10
25.00331023195156
 20
639.5492648051819
 30
0.0
 40
4.5
  1
MODEL NO.
100
AcDbText
  0
LINE
  5
88
330
18
100
AcDbEntity
  8
L-TYUSIN
  6
CENTER
 62
     1
100
AcDbLine
 10
549.6455384558379
 20
372.1999999999992
 30
0.0
 11
524.0474130219516
 21
372.1999999999994
 31
0.0
  0
LINE
  5
89
330
18
100
AcDbEntity
  8
L-ZISSEN
100
AcDbLine
 10
300.5
 20
382.1999999999999
 30
0.0
 11
280.6851851851852
 21
382.1999999999999
 31
0.0
  0
LINE
  5
8A
330
18
100
AcDbEntity
  8
L-ZISSEN
100
AcDbLine
 10
211.5000000000001
 20
566.9999999999998
 30
0.0
 11
211.5000000000001
 21
568.9999999999998
 31
0.0
  0
LINE
  5
8B
330
18
100
AcDbEntity
  8
L-ZISSEN
100
AcDbLine
 10
247.4999999999995
 20
566.9999999999998
 30
0.0
 11
247.4999999999995
 21
568.9999999999998
 31
0.0
  0
LINE
  5
8C
330
18
100
AcDbEntity
  8
L-ZISSEN
  6
Continuous
 62
     7
100
AcDbLine
 10
538.232050807569
 20
375.1999999999994
 30
0.0
 11
534.7679491924313
 21
375.1999999999994
 31
0.0
  0
LINE
  5
8D
330
18
100
AcDbEntity
  8
L-ZISSEN
  6
Continuous
 62
     7
100
AcDbLine
 10
539.9641016151379
 20
372.1999999999994
 30
0.0
 11
538.232050807569
 21
375.1999999999994
 31
0.0
  0
LINE
  5
8E
330
18
100
AcDbEntity
  8
L-ZISSEN
  6
Continuous
 62
     7
100
AcDbLine
 10
538.232050807569
 20
369.1999999999994
 30
0.0
 11
539.9641016151379
 21
372.1999999999994
 31
0.0
  0
LINE
  5
8F
330
18
100
AcDbEntity
  8
L-ZISSEN
  6
Continuous
 62
     7
100
AcDbLine
 10
534.7679491924313
 20
369.1999999999994
 30
0.0
 11
538.232050807569
 21
369.1999999999994
 31
0.0
  0
LINE
  5
90
330
18
100
AcDbEntity
  8
L-ZISSEN
  6
Continuous
 62
     7
100
AcDbLine
 10
533.0358983848623
 20
372.1999999999994
 30
0.0
 11
534.7679491924313
 21
369.1999999999994
 31
0.0
  0
LINE
  5
91
330
18
100
AcDbEntity
  8
L-ZISSEN
  6
Continuous
 62
     7
100
AcDbLine
 10
534.7679491924313
 20
375.1999999999994
 30
0.0
 11
533.0358983848623
 21
372.1999999999994
 31
0.0
  0
ARC
  5
92
330
18
100
AcDbEntity
  8
L-ZISSEN
  6
Continuous
 62
     7
100
AcDbCircle
 10
536.5000000000001
 20
372.1999999999994
 30
0.0
 40
10.0
100
AcDbArc
 50
0.0
 51
180.0
  0
CIRCLE
  5
93
330
18
100
AcDbEntity
  8
L-ZISSEN
  6
Continuous
 62
     7
100
AcDbCircle
 10
536.5000000000001
 20
372.1999999999994
 30
0.0
 40
6.6
  0
LINE
  5
94
330
18
100
AcDbEntity
  8
L-ZISSEN
  6
Continuous
 62
     7
100
AcDbLine
 10
526.5000000000001
 20
372.1999999999994
 30
0.0
 11
525.9846938775512
 21
352.0
 31
0.0
  0
LINE
  5
95
330
18
100
AcDbEntity
  8
L-ZISSEN
  6
Continuous
 62
     7
100
AcDbLine
 10
559.0000000000001
 20
358.0
 30
0.0
 11
559.0
 21
352.2941176470589
 31
0.0
  0
LINE
  5
96
330
18
100
AcDbEntity
  8
L-ZISSEN
  6
Continuous
 62
     7
100
AcDbLine
 10
572.0
 20
358.0
 30
0.0
 11
572.0000000000001
 21
352.0
 31
0.0
  0
LINE
  5
97
330
18
100
AcDbEntity
  8
L-ZISSEN
  6
Continuous
 62
     7
100
AcDbLine
 10
572.0
 20
358.0
 30
0.0
 11
559.0000000000001
 21
358.0000000000001
 31
0.0
  0
LINE
  5
98
330
18
100
AcDbEntity
  8
L-ZISSEN
  6
Continuous
 62
     7
100
AcDbLine
 10
571.5
 20
365.5000000000001
 30
0.0
 11
559.5
 21
365.5000000000001
 31
0.0
  0
LINE
  5
99
330
18
100
AcDbEntity
  8
L-ZISSEN
  6
Continuous
 62
     7
100
AcDbLine
 10
571.5
 20
365.5000000000001
 30
0.0
 11
571.5
 21
357.9985578712482
 31
0.0
  0
LINE
  5
9A
330
18
100
AcDbEntity
  8
L-ZISSEN
  6
Continuous
 62
     7
100
AcDbLine
 10
559.5
 20
365.5000000000001
 30
0.0
 11
559.5
 21
357.9985578712482
 31
0.0
  0
LINE
  5
9B
330
18
100
AcDbEntity
  8
L-ZISSEN
  6
Continuous
 62
     7
100
AcDbLine
 10
514.0
 20
358.0
 30
0.0
 11
514.0000000000001
 21
352.2941176470589
 31
0.0
  0
LINE
  5
9C
330
18
100
AcDbEntity
  8
L-ZISSEN
  6
Continuous
 62
     7
100
AcDbLine
 10
513.5000000000001
 20
365.5000000000001
 30
0.0
 11
513.5000000000001
 21
357.9985578712482
 31
0.0
  0
LINE
  5
9D
330
18
100
AcDbEntity
  8
L-ZISSEN
  6
Continuous
 62
     7
100
AcDbLine
 10
501.0000000000001
 20
358.0
 30
0.0
 11
501.0
 21
352.0
 31
0.0
  0
LINE
  5
9E
330
18
100
AcDbEntity
  8
L-ZISSEN
  6
Continuous
 62
     7
100
AcDbLine
 10
501.5000000000001
 20
365.5000000000001
 30
0.0
 11
501.5000000000001
 21
357.9985578712482
 31
0.0
  0
LINE
  5
9F
330
18
100
AcDbEntity
  8
L-ZISSEN
  6
Continuous
 62
     7
100
AcDbLine
 10
501.5000000000001
 20
365.5000000000001
 30
0.0
 11
513.5000000000001
 21
365.5000000000001
 31
0.0
  0
LINE
  5
A0
330
18
100
AcDbEntity
  8
L-ZISSEN
  6
Continuous
 62
     7
100
AcDbLine
 10
501.0000000000001
 20
358.0
 30
0.0
 11
514.0
 21
358.0000000000001
 31
0.0
  0
CIRCLE
  5
A1
330
18
100
AcDbEntity
  8
L-ZISSEN
  6
Continuous
 62
     7
100
AcDbCircle
 10
273.4999999999999
 20
628.9999999999998
 30
0.0
 40
4.25
  0
CIRCLE
  5
A2
330
18
100
AcDbEntity
  8
L-ZISSEN
  6
Continuous
 62
     7
100
AcDbCircle
 10
185.4999999999999
 20
628.9999999999998
 30
0.0
 40
4.25
  0
CIRCLE
  5
A3
330
18
100
AcDbEntity
  8
L-ZISSEN
  6
Continuous
 62
     7
100
AcDbCircle
 10
166.4999999999999
 20
636.0
 30
0.0
 40
6.5
  0
CIRCLE
  5
A4
330
18
100
AcDbEntity
  8
L-ZISSEN
  6
Continuous
 62
     7
100
AcDbCircle
 10
292.4999999999999
 20
577.9999999999995
 30
0.0
 40
6.5
  0
CIRCLE
  5
A5
330
18
100
AcDbEntity
  8
L-ZISSEN
  6
Continuous
 62
     7
100
AcDbCircle
 10
292.4999999999999
 20
636.0
 30
0.0
 40
6.5
  0
LINE
  5
A6
330
18
100
AcDbEntity
  8
L-ZISSEN
  6
Continuous
 62
     7
100
AcDbLine
 10
301.4999999999999
 20
644.9999999999999
 30
0.0
 11
301.4999999999999
 21
568.9999999999998
 31
0.0
  0
LINE
  5
A7
330
18
100
AcDbEntity
  8
L-ZISSEN
  6
Continuous
 62
     7
100
AcDbLine
 10
247.4999999999995
 20
566.9999999999998
 30
0.0
 11
211.5000000000001
 21
566.9999999999998
 31
0.0
  0
LINE
  5
A8
330
18
100
AcDbEntity
  8
L-TYUSIN
  6
CENTER
 62
     1
100
AcDbLine
 10
205.4999999999999
 20
592.9374999999997
 30
0.0
 11
205.4999999999999
 21
621.0624999999999
 31
0.0
  0
CIRCLE
  5
A9
330
18
100
AcDbEntity
  8
L-ZISSEN
  6
Continuous
 62
     7
100
AcDbCircle
 10
205.4999999999999
 20
606.9999999999998
 30
0.0
 40
12.5
  0
LINE
  5
AA
330
18
100
AcDbEntity
  8
L-ZISSEN
  6
Continuous
 62
     7
100
AcDbLine
 10
208.3564064605507
 20
643.5
 30
0.0
 11
250.6435935394489
 21
643.4999999999999
 31
0.0
  0
LINE
  5
AB
330
18
100
AcDbEntity
  8
L-ZISSEN
  6
Continuous
 62
     7
100
AcDbLine
 10
157.4999999999999
 20
568.9999999999998
 30
0.0
 11
157.4999999999999
 21
644.9999999999999
 31
0.0
  0
LINE
  5
AC
330
18
100
AcDbEntity
  8
L-ZISSEN
  6
Continuous
 62
     7
100
AcDbLine
 10
157.5
 20
360.0
 30
0.0
 11
157.5
 21
338.0000000000001
 31
0.0
  0
LINE
  5
AD
330
18
100
AcDbEntity
  8
L-ZISSEN
  6
Continuous
 62
     7
100
AcDbLine
 10
173.0
 20
357.9999999999999
 30
0.0
 11
173.0
 21
353.8235294117645
 31
0.0
  0
LINE
  5
AE
330
18
100
AcDbEntity
  8
L-ZISSEN
  6
Continuous
 62
     7
100
AcDbLine
 10
160.0
 20
357.9999999999999
 30
0.0
 11
160.0
 21
352.2941176470588
 31
0.0
  0
LINE
  5
AF
330
18
100
AcDbEntity
  8
L-ZISSEN
  6
Continuous
 62
     7
100
AcDbLine
 10
160.5
 20
365.5
 30
0.0
 11
160.5
 21
357.9985578712481
 31
0.0
  0
LINE
  5
B0
330
18
100
AcDbEntity
  8
L-ZISSEN
  6
Continuous
 62
     7
100
AcDbLine
 10
172.5
 20
365.5
 30
0.0
 11
172.5
 21
357.9985578712481
 31
0.0
  0
LINE
  5
B1
330
18
100
AcDbEntity
  8
L-ZISSEN
  6
Continuous
 62
     7
100
AcDbLine
 10
173.0
 20
357.9999999999999
 30
0.0
 11
160.0
 21
358.0
 31
0.0
  0
LINE
  5
B2
330
18
100
AcDbEntity
  8
L-ZISSEN
  6
Continuous
 62
     7
100
AcDbLine
 10
172.5
 20
365.5
 30
0.0
 11
160.5
 21
365.5
 31
0.0
  0
LINE
  5
B3
330
18
100
AcDbEntity
  8
L-ZISSEN
  6
Continuous
 62
     7
100
AcDbLine
 10
298.9999999999999
 20
357.9999999999999
 30
0.0
 11
299.0
 21
352.2941176470588
 31
0.0
  0
LINE
  5
B4
330
18
100
AcDbEntity
  8
L-TYUSIN
  6
CENTER
 62
     1
100
AcDbLine
 10
305.3484310709725
 20
372.1999999999999
 30
0.0
 11
295.3484310709725
 21
372.2
 31
0.0
  0
LINE
  5
B5
330
18
100
AcDbEntity
  8
L-ZISSEN
  6
Continuous
 62
     7
100
AcDbLine
 10
298.5
 20
365.5
 30
0.0
 11
298.5
 21
357.9985578712481
 31
0.0
  0
LINE
  5
B6
330
18
100
AcDbEntity
  8
L-ZISSEN
  6
Continuous
 62
     7
100
AcDbLine
 10
286.0
 20
357.9999999999999
 30
0.0
 11
285.9999999999999
 21
353.8235294117645
 31
0.0
  0
LINE
  5
B7
330
18
100
AcDbEntity
  8
L-ZISSEN
  6
Continuous
 62
     7
100
AcDbLine
 10
286.0
 20
357.9999999999999
 30
0.0
 11
298.9999999999999
 21
358.0
 31
0.0
  0
LINE
  5
B8
330
18
100
AcDbEntity
  8
L-ZISSEN
  6
Continuous
 62
     7
100
AcDbLine
 10
286.5
 20
365.5
 30
0.0
 11
286.5
 21
357.9985578712481
 31
0.0
  0
LINE
  5
B9
330
18
100
AcDbEntity
  8
L-ZISSEN
  6
Continuous
 62
     7
100
AcDbLine
 10
286.5
 20
365.5
 30
0.0
 11
298.5
 21
365.5
 31
0.0
  0
LINE
  5
BA
330
18
100
AcDbEntity
  8
L-ZISSEN
  6
Continuous
 62
     7
100
AcDbLine
 10
208.3564064605507
 20
570.4999999999995
 30
0.0
 11
250.6435935394489
 21
570.4999999999997
 31
0.0
  0
CIRCLE
  5
BB
330
18
100
AcDbEntity
  8
L-ZISSEN
  6
Continuous
 62
     7
100
AcDbCircle
 10
166.4999999999999
 20
577.9999999999995
 30
0.0
 40
6.5
  0
LINE
  5
BC
330
18
100
AcDbEntity
  8
L-ZISSEN
  6
Continuous
 62
     7
100
AcDbLine
 10
157.4999999999999
 20
568.9999999999998
 30
0.0
 11
301.4999999999999
 21
568.9999999999998
 31
0.0
  0
LINE
  5
BD
330
18
100
AcDbEntity
  8
L-ZISSEN
  6
Continuous
 62
     7
100
AcDbLine
 10
280.4999999999999
 20
578.4999999999994
 30
0.0
 11
250.6435935394489
 21
570.4999999999995
 31
0.0
  0
LINE
  5
BE
330
18
100
AcDbEntity
  8
L-ZISSEN
  6
Continuous
 62
     7
100
AcDbLine
 10
178.4999999999999
 20
578.4999999999994
 30
0.0
 11
208.3564064605508
 21
570.4999999999995
 31
0.0
  0
LINE
  5
BF
330
18
100
AcDbEntity
  8
L-ZISSEN
  6
Continuous
 62
     7
100
AcDbLine
 10
178.4999999999999
 20
578.4999999999994
 30
0.0
 11
178.4999999999999
 21
635.5
 31
0.0
  0
LINE
  5
C0
330
18
100
AcDbEntity
  8
L-ZISSEN
  6
Continuous
 62
     7
100
AcDbLine
 10
301.4999999999999
 20
644.9999999999999
 30
0.0
 11
157.4999999999999
 21
644.9999999999998
 31
0.0
  0
LINE
  5
C1
330
18
100
AcDbEntity
  8
L-ZISSEN
  6
Continuous
 62
     7
100
AcDbLine
 10
280.4999999999999
 20
635.5000000000001
 30
0.0
 11
250.6435935394489
 21
643.5
 31
0.0
  0
LINE
  5
C2
330
18
100
AcDbEntity
  8
L-ZISSEN
  6
Continuous
 62
     7
100
AcDbLine
 10
178.4999999999999
 20
635.5000000000001
 30
0.0
 11
208.3564064605508
 21
643.5
 31
0.0
  0
LINE
  5
C3
330
18
100
AcDbEntity
  8
L-TYUSIN
  6
CENTER
 62
     1
100
AcDbLine
 10
311.4999999999999
 20
606.9999999999999
 30
0.0
 11
147.4999999999999
 21
606.9999999999998
 31
0.0
  0
LINE
  5
C4
330
18
100
AcDbEntity
  8
L-TYUSIN
  6
CENTER
 62
     1
100
AcDbLine
 10
253.4999999999999
 20
592.9374999999998
 30
0.0
 11
253.4999999999999
 21
621.0624999999998
 31
0.0
  0
CIRCLE
  5
C5
330
18
100
AcDbEntity
  8
L-ZISSEN
  6
Continuous
 62
     7
100
AcDbCircle
 10
253.4999999999999
 20
606.9999999999998
 30
0.0
 40
12.5
  0
LINE
  5
C6
330
18
100
AcDbEntity
  8
L-ZISSEN
  6
Continuous
 62
     7
100
AcDbLine
 10
280.4999999999999
 20
596.9999999999998
 30
0.0
 11
301.4999999999999
 21
596.9999999999998
 31
0.0
  0
LINE
  5
C7
330
18
100
AcDbEntity
  8
L-ZISSEN
  6
Continuous
 62
     7
100
AcDbLine
 10
301.4999999999999
 20
616.9999999999998
 30
0.0
 11
280.4999999999999
 21
616.9999999999999
 31
0.0
  0
LINE
  5
C8
330
18
100
AcDbEntity
  8
L-ZISSEN
  6
Continuous
 62
     7
100
AcDbLine
 10
280.4999999999999
 20
578.4999999999994
 30
0.0
 11
280.4999999999999
 21
635.5
 31
0.0
  0
LINE
  5
C9
330
18
100
AcDbEntity
  8
L-ZISSEN
  6
Continuous
 62
     7
100
AcDbLine
 10
502.1999999999999
 20
344.0
 30
0.0
 11
556.8
 21
344.0
 31
0.0
  0
LINE
  5
CA
330
18
100
AcDbEntity
  8
L-ZISSEN
  6
Continuous
 62
     7
100
AcDbLine
 10
498.5000000000001
 20
352.0
 30
0.0
 11
574.5000000000001
 21
352.0
 31
0.0
  0
LINE
  5
CB
330
18
100
AcDbEntity
  8
L-ZISSEN
  6
Continuous
 62
     7
100
AcDbLine
 10
546.5000000000001
 20
372.1999999999994
 30
0.0
 11
547.015306122449
 21
352.0
 31
0.0
  0
LINE
  5
CC
330
18
100
AcDbEntity
  8
L-ZISSEN
  6
Continuous
 62
     7
100
AcDbLine
 10
574.0369624941399
 20
352.0
 30
0.0
 11
571.585960235264
 21
445.6
 31
0.0
  0
LINE
  5
CD
330
18
100
AcDbEntity
  8
L-ZISSEN
  6
Continuous
 62
     7
100
AcDbLine
 10
500.0000000000001
 20
391.6000000000001
 30
0.0
 11
573.0000000000001
 21
391.6
 31
0.0
  0
LINE
  5
CE
330
18
100
AcDbEntity
  8
L-ZISSEN
  6
Continuous
 62
     7
100
AcDbLine
 10
498.9630375058603
 20
352.0
 30
0.0
 11
501.414039764736
 21
445.6
 31
0.0
  0
LINE
  5
CF
330
18
100
AcDbEntity
  8
L-ZISSEN
  6
Continuous
 62
     7
100
AcDbLine
 10
501.414039764736
 20
445.6
 30
0.0
 11
571.585960235264
 21
445.6000000000001
 31
0.0
  0
LINE
  5
D0
330
18
100
AcDbEntity
  8
L-ZISSEN
  6
Continuous
 62
     7
100
AcDbLine
 10
301.5
 20
344.0
 30
0.0
 11
157.5
 21
343.9999999999999
 31
0.0
  0
LINE
  5
D1
330
18
100
AcDbEntity
  8
L-ZISSEN
  6
Continuous
 62
     7
100
AcDbLine
 10
157.5
 20
351.9999999999999
 30
0.0
 11
208.5000000000018
 21
358.0
 31
0.0
  0
LINE
  5
D2
330
18
100
AcDbEntity
  8
L-ZISSEN
  6
Continuous
 62
     7
100
AcDbLine
 10
301.5
 20
351.9999999999999
 30
0.0
 11
250.4999999999982
 21
358.0
 31
0.0
  0
LINE
  5
D3
330
18
100
AcDbEntity
  8
L-ZISSEN
  6
Continuous
 62
     7
100
AcDbLine
 10
250.499999999998
 20
358.0
 30
0.0
 11
208.5
 21
358.0
 31
0.0
  0
LINE
  5
D4
330
18
100
AcDbEntity
  8
L-ZISSEN
  6
Continuous
 62
     7
100
AcDbLine
 10
279.4999999999999
 20
445.6000000000001
 30
0.0
 11
281.1890829694324
 21
354.3895196506548
 31
0.0
  0
LINE
  5
D5
330
18
100
AcDbEntity
  8
L-ZISSEN
  6
Continuous
 62
     7
100
AcDbLine
 10
280.5
 20
391.6
 30
0.0
 11
178.5
 21
391.6
 31
0.0
  0
LINE
  5
D6
330
18
100
AcDbEntity
  8
L-ZISSEN
  6
Continuous
 62
     7
100
AcDbLine
 10
179.5
 20
445.6000000000001
 30
0.0
 11
177.8109170305676
 21
354.3895196506548
 31
0.0
  0
LINE
  5
D7
330
18
100
AcDbEntity
  8
L-ZISSEN
  6
Continuous
 62
     7
100
AcDbLine
 10
279.5
 20
445.6
 30
0.0
 11
179.5
 21
445.6000000000001
 31
0.0
  0
LINE
  5
D8
330
18
100
AcDbEntity
  8
L-ZISSEN
100
AcDbLine
 10
300.5
 20
382.1999999999999
 30
0.0
 11
300.5
 21
352.1176470588234
 31
0.0
  0
LINE
  5
D9
330
18
100
AcDbEntity
  8
L-ZISSEN
100
AcDbLine
 10
157.5
 20
359.9999999999999
 30
0.0
 11
160.5
 21
360.0
 31
0.0
  0
LINE
  5
DA
330
18
100
AcDbEntity
  8
L-ZISSEN
100
AcDbLine
 10
172.5
 20
360.0
 30
0.0
 11
177.9148148148147
 21
359.9999999999999
 31
0.0
  0
CIRCLE
  5
DB
330
18
100
AcDbEntity
  8
L-ZISSEN
  6
Continuous
 62
     7
100
AcDbCircle
 10
185.4999999999999
 20
584.9999999999999
 30
0.0
 40
4.25
  0
CIRCLE
  5
DC
330
18
100
AcDbEntity
  8
L-ZISSEN
  6
Continuous
 62
     7
100
AcDbCircle
 10
273.4999999999999
 20
584.9999999999999
 30
0.0
 40
4.25
  0
LINE
  5
DD
330
18
100
AcDbEntity
  8
L-ZISSEN
100
AcDbLine
 10
178.4999999999999
 20
614.9999999999998
 30
0.0
 11
157.4999999999999
 21
614.9999999999998
 31
0.0
  0
LINE
  5
DE
330
18
100
AcDbEntity
  8
L-ZISSEN
100
AcDbLine
 10
178.4999999999999
 20
598.9999999999997
 30
0.0
 11
157.4999999999999
 21
598.9999999999997
 31
0.0
  0
LINE
  5
DF
330
18
100
AcDbEntity
  8
L-ZISSEN
  6
Continuous
 62
     7
100
AcDbLine
 10
301.5
 20
351.9999999999999
 30
0.0
 11
301.5
 21
338.0
 31
0.0
  0
LINE
  5
E0
330
18
100
AcDbEntity
  8
L-ZISSEN
100
AcDbLine
 10
498.5000000000001
 20
352.0
 30
0.0
 11
498.5000000000001
 21
348.0
 31
0.0
  0
LINE
  5
E1
330
18
100
AcDbEntity
  8
L-ZISSEN
100
AcDbLine
 10
484.5
 20
338.0000000000001
 30
0.0
 11
574.5000000000001
 21
338.0000000000001
 31
0.0
  0
LINE
  5
E2
330
18
100
AcDbEntity
  8
L-ZISSEN
100
AcDbLine
 10
326.804347826087
 20
629.9999999999999
 30
0.0
 11
324.5
 21
629.9999999999999
 31
0.0
  0
LINE
  5
E3
330
18
100
AcDbEntity
  8
L-ZISSEN
100
AcDbLine
 10
324.5
 20
618.0
 30
0.0
 11
324.5
 21
645.0000000000001
 31
0.0
  0
LINE
  5
E4
330
18
100
AcDbEntity
  8
L-ZISSEN
100
AcDbLine
 10
333.5
 20
599.0
 30
0.0
 11
324.5
 21
596.0
 31
0.0
  0
LINE
  5
E5
330
18
100
AcDbEntity
  8
L-ZISSEN
100
AcDbLine
 10
333.5
 20
615.0
 30
0.0
 11
324.5
 21
618.0
 31
0.0
  0
LINE
  5
E6
330
18
100
AcDbEntity
  8
L-ZISSEN
100
AcDbLine
 10
324.5
 20
555.0
 30
0.0
 11
324.5
 21
596.0
 31
0.0
  0
LINE
  5
E7
330
18
100
AcDbEntity
  8
L-ZISSEN
100
AcDbLine
 10
301.5
 20
569.0000000000001
 30
0.0
 11
301.5
 21
645.0000000000001
 31
0.0
  0
LINE
  5
E8
330
18
100
AcDbEntity
  8
L-ZISSEN
100
AcDbLine
 10
157.5
 20
569.0000000000001
 30
0.0
 11
157.5
 21
645.0000000000001
 31
0.0
  0
LINE
  5
E9
330
18
100
AcDbEntity
  8
L-ZISSEN
100
AcDbLine
 10
134.5
 20
338.0
 30
0.0
 11
333.4999999999999
 21
338.0
 31
0.0
  0
LINE
  5
EA
330
18
100
AcDbEntity
  8
L-TYUSIN
100
AcDbLine
 10
340.5
 20
651.0
 30
0.0
 11
340.5
 21
565.0
 31
0.0
  0
LINE
  5
EB
330
18
100
AcDbEntity
  8
L-TYUSIN
100
AcDbLine
 10
123.5
 20
651.0
 30
0.0
 11
123.5
 21
565.0
 31
0.0
  0
CIRCLE
  5
EC
330
18
100
AcDbEntity
  8
L-ZISSEN
100
AcDbCircle
 10
340.5
 20
286.0
 30
0.0
 40
6.75
  0
LINE
  5
ED
330
18
100
AcDbEntity
  8
L-ZISSEN
100
AcDbLine
 10
327.5
 20
645.9999999999999
 30
0.0
 11
326.2571428571429
 21
617.4142857142857
 31
0.0
  0
LINE
  5
EE
330
18
100
AcDbEntity
  8
L-ZISSEN
100
AcDbLine
 10
327.5
 20
570.0
 30
0.0
 11
325.7391304347826
 21
596.4130434782609
 31
0.0
  0
LINE
  5
EF
330
18
100
AcDbEntity
  8
L-ZISSEN
100
AcDbLine
 10
324.5
 20
570.0
 30
0.0
 11
359.0000000000001
 21
570.0
 31
0.0
  0
LINE
  5
F0
330
18
100
AcDbEntity
  8
L-ZISSEN
100
AcDbLine
 10
353.5
 20
646.0
 30
0.0
 11
340.5
 21
646.0
 31
0.0
  0
LINE
  5
F1
330
18
100
AcDbEntity
  8
L-ZISSEN
100
AcDbLine
 10
340.5
 20
645.9999999999999
 30
0.0
 11
327.5
 21
645.9999999999999
 31
0.0
  0
LINE
  5
F2
330
18
100
AcDbEntity
  8
L-ZISSEN
100
AcDbLine
 10
353.5000000000001
 20
645.9999999999999
 30
0.0
 11
355.5000000000001
 21
600.0
 31
0.0
  0
LINE
  5
F3
330
18
100
AcDbEntity
  8
L-ZISSEN
100
AcDbLine
 10
353.5000000000001
 20
570.0
 30
0.0
 11
355.5000000000001
 21
600.0
 31
0.0
  0
LINE
  5
F4
330
18
100
AcDbEntity
  8
L-ZISSEN
100
AcDbLine
 10
136.5
 20
646.0
 30
0.0
 11
136.5
 21
645.0000000000001
 31
0.0
  0
LINE
  5
F5
330
18
100
AcDbEntity
  8
L-ZISSEN
100
AcDbLine
 10
110.5
 20
570.0
 30
0.0
 11
108.5
 21
600.0
 31
0.0
  0
LINE
  5
F6
330
18
100
AcDbEntity
  8
L-ZISSEN
100
AcDbLine
 10
110.5
 20
645.9999999999999
 30
0.0
 11
108.5
 21
600.0
 31
0.0
  0
LINE
  5
F7
330
18
100
AcDbEntity
  8
L-ZISSEN
100
AcDbLine
 10
123.5
 20
645.9999999999999
 30
0.0
 11
110.5
 21
645.9999999999999
 31
0.0
  0
LINE
  5
F8
330
18
100
AcDbEntity
  8
L-ZISSEN
100
AcDbLine
 10
136.5
 20
646.0
 30
0.0
 11
123.5
 21
646.0
 31
0.0
  0
LINE
  5
F9
330
18
100
AcDbEntity
  8
L-ZISSEN
100
AcDbLine
 10
359.0000000000001
 20
629.9999999999999
 30
0.0
 11
354.1956521739131
 21
629.9999999999999
 31
0.0
  0
LINE
  5
FA
330
18
100
AcDbEntity
  8
L-ZISSEN
100
AcDbLine
 10
359.0000000000001
 20
570.0
 30
0.0
 11
359.0000000000001
 21
629.9999999999999
 31
0.0
  0
LINE
  5
FB
330
18
100
AcDbEntity
  8
L-ZISSEN
100
AcDbLine
 10
100.0000000000001
 20
570.0
 30
0.0
 11
100.0000000000001
 21
630.0
 31
0.0
  0
LINE
  5
FC
330
18
100
AcDbEntity
  8
L-ZISSEN
100
AcDbLine
 10
100.0000000000001
 20
630.0
 30
0.0
 11
109.804347826087
 21
630.0
 31
0.0
  0
LINE
  5
FD
330
18
100
AcDbEntity
  8
L-ZISSEN
100
AcDbLine
 10
100.0000000000001
 20
570.0
 30
0.0
 11
134.5
 21
570.0
 31
0.0
  0
LINE
  5
FE
330
18
100
AcDbEntity
  8
L-ZISSEN
100
AcDbLine
 10
269.5000000000002
 20
548.0
 30
0.0
 11
281.6243556529823
 21
555.0
 31
0.0
  0
LINE
  5
FF
330
18
100
AcDbEntity
  8
L-ZISSEN
100
AcDbLine
 10
189.4999999999998
 20
548.0
 30
0.0
 11
177.3756443470177
 21
555.0
 31
0.0
  0
LINE
  5
100
330
18
100
AcDbEntity
  8
L-ZISSEN
100
AcDbLine
 10
189.4999999999998
 20
521.0
 30
0.0
 11
269.5000000000002
 21
521.0
 31
0.0
  0
LINE
  5
101
330
18
100
AcDbEntity
  8
L-ZISSEN
100
AcDbLine
 10
269.5000000000002
 20
521.0
 30
0.0
 11
269.5000000000002
 21
555.0
 31
0.0
  0
LINE
  5
102
330
18
100
AcDbEntity
  8
L-ZISSEN
100
AcDbLine
 10
189.4999999999998
 20
521.0
 30
0.0
 11
189.4999999999998
 21
555.0
 31
0.0
  0
LINE
  5
103
330
18
100
AcDbEntity
  8
L-ZISSEN
100
AcDbLine
 10
134.5
 20
645.0000000000001
 30
0.0
 11
327.4565217391305
 21
645.0000000000002
 31
0.0
  0
LINE
  5
104
330
18
100
AcDbEntity
  8
L-ZISSEN
100
AcDbLine
 10
99.49999999999989
 20
555.0
 30
0.0
 11
359.5000000000001
 21
555.0
 31
0.0
  0
LINE
  5
105
330
18
100
AcDbEntity
  8
L-ZISSEN
100
AcDbLine
 10
333.5
 20
599.0
 30
0.0
 11
333.5
 21
615.0
 31
0.0
  0
LINE
  5
106
330
18
100
AcDbEntity
  8
L-ZISSEN
100
AcDbLine
 10
134.5
 20
555.0
 30
0.0
 11
134.5
 21
645.0000000000001
 31
0.0
  0
LINE
  5
107
330
18
100
AcDbEntity
  8
L-TYUSIN
100
AcDbLine
 10
229.5
 20
26.0
 30
0.0
 11
229.5
 21
455.6
 31
0.0
  0
LINE
  5
108
330
18
100
AcDbEntity
  8
L-TYUSIN
100
AcDbLine
 10
368.9999999999999
 20
599.9999999999999
 30
0.0
 11
90.0
 21
600.0
 31
0.0
  0
LINE
  5
109
330
18
100
AcDbEntity
  8
L-TYUSIN
100
AcDbLine
 10
494.5
 20
250.0
 30
0.0
 11
564.5
 21
250.0
 31
0.0
  0
LINE
  5
10A
330
18
100
AcDbEntity
  8
L-TYUSIN
100
AcDbLine
 10
184.4999999999998
 20
278.0
 30
0.0
 11
274.5
 21
278.0
 31
0.0
  0
LINE
  5
10B
330
18
100
AcDbEntity
  8
L-TYUSIN
100
AcDbLine
 10
355.5
 20
286.0
 30
0.0
 11
325.5
 21
286.0
 31
0.0
  0
LINE
  5
10C
330
18
100
AcDbEntity
  8
L-TYUSIN
100
AcDbLine
 10
340.5
 20
300.9999999999994
 30
0.0
 11
340.5
 21
271.0
 31
0.0
  0
LINE
  5
10D
330
18
100
AcDbEntity
  8
L-TYUSIN
100
AcDbLine
 10
494.5
 20
208.0
 30
0.0
 11
580.4999999999999
 21
208.0
 31
0.0
  0
LINE
  5
10E
330
18
100
AcDbEntity
  8
L-TYUSIN
100
AcDbLine
 10
494.5
 20
286.0
 30
0.0
 11
580.4999999999999
 21
286.0
 31
0.0
  0
LINE
  5
10F
330
18
100
AcDbEntity
  8
L-ZISSEN
100
AcDbLine
 10
484.5
 20
301.0
 30
0.0
 11
574.5000000000001
 21
301.0
 31
0.0
  0
LINE
  5
110
330
18
100
AcDbEntity
  8
L-ZISSEN
100
AcDbLine
 10
489.5
 20
217.0000000000001
 30
0.0
 11
489.5
 21
238.0
 31
0.0
  0
LINE
  5
111
330
18
100
AcDbEntity
  8
L-ZISSEN
100
AcDbLine
 10
484.5
 20
301.0
 30
0.0
 11
484.5
 21
338.0000000000001
 31
0.0
  0
LINE
  5
112
330
18
100
AcDbEntity
  8
L-ZISSEN
100
AcDbLine
 10
489.5
 20
217.0000000000001
 30
0.0
 11
497.5000000000001
 21
217.0000000000001
 31
0.0
  0
LINE
  5
113
330
18
100
AcDbEntity
  8
L-ZISSEN
100
AcDbLine
 10
497.5000000000001
 20
203.0
 30
0.0
 11
497.5000000000001
 21
217.0000000000001
 31
0.0
  0
LINE
  5
114
330
18
100
AcDbEntity
  8
L-ZISSEN
100
AcDbLine
 10
484.5000000000001
 20
203.0
 30
0.0
 11
497.5000000000001
 21
203.0
 31
0.0
  0
LINE
  5
115
330
18
100
AcDbEntity
  8
L-ZISSEN
100
AcDbLine
 10
574.5000000000001
 20
194.9565217391305
 30
0.0
 11
574.5000000000001
 21
37.0
 31
0.0
  0
LINE
  5
116
330
18
100
AcDbEntity
  8
L-ZISSEN
100
AcDbLine
 10
575.5
 20
195.0000000000001
 30
0.0
 11
575.4999999999999
 21
221.0
 31
0.0
  0
LINE
  5
117
330
18
100
AcDbEntity
  8
L-ZISSEN
100
AcDbLine
 10
575.5
 20
221.0
 30
0.0
 11
541.4450939854382
 21
222.4806480875897
 31
0.0
  0
LINE
  5
118
330
18
100
AcDbEntity
  8
L-ZISSEN
100
AcDbLine
 10
575.5
 20
195.0000000000001
 30
0.0
 11
529.5
 21
193.0000000000001
 31
0.0
  0
LINE
  5
119
330
18
100
AcDbEntity
  8
L-ZISSEN
100
AcDbLine
 10
499.5000000000001
 20
195.0000000000001
 30
0.0
 11
499.5
 21
221.0
 31
0.0
  0
LINE
  5
11A
330
18
100
AcDbEntity
  8
L-ZISSEN
100
AcDbLine
 10
499.5
 20
221.0
 30
0.0
 11
518.1218131639461
 21
222.2414542109298
 31
0.0
  0
LINE
  5
11B
330
18
100
AcDbEntity
  8
L-ZISSEN
100
AcDbLine
 10
499.5
 20
195.0000000000001
 30
0.0
 11
529.5
 21
193.0000000000001
 31
0.0
  0
LINE
  5
11C
330
18
100
AcDbEntity
  8
L-ZISSEN
100
AcDbLine
 10
499.5
 20
273.0
 30
0.0
 11
509.4715804068404
 21
272.3352279728773
 31
0.0
  0
LINE
  5
11D
330
18
100
AcDbEntity
  8
L-ZISSEN
100
AcDbLine
 10
499.5
 20
299.0
 30
0.0
 11
529.5
 21
301.0
 31
0.0
  0
LINE
  5
11E
330
18
100
AcDbEntity
  8
L-ZISSEN
100
AcDbLine
 10
499.5000000000001
 20
273.0
 30
0.0
 11
499.5
 21
299.0
 31
0.0
  0
LINE
  5
11F
330
18
100
AcDbEntity
  8
L-ZISSEN
100
AcDbLine
 10
574.5000000000001
 20
272.9565217391305
 30
0.0
 11
574.5000000000001
 21
221.0434782608696
 31
0.0
  0
LINE
  5
120
330
18
100
AcDbEntity
  8
L-ZISSEN
100
AcDbLine
 10
575.5
 20
273.0
 30
0.0
 11
550.0121352639134
 21
271.8918319679963
 31
0.0
  0
LINE
  5
121
330
18
100
AcDbEntity
  8
L-ZISSEN
100
AcDbLine
 10
575.5
 20
299.0
 30
0.0
 11
529.5
 21
301.0
 31
0.0
  0
LINE
  5
122
330
18
100
AcDbEntity
  8
L-ZISSEN
100
AcDbLine
 10
575.5
 20
273.0
 30
0.0
 11
575.4999999999999
 21
299.0
 31
0.0
  0
LINE
  5
123
330
18
100
AcDbEntity
  8
L-ZISSEN
100
AcDbLine
 10
450.5
 20
238.0
 30
0.0
 11
489.5
 21
238.0
 31
0.0
  0
LINE
  5
124
330
18
100
AcDbEntity
  8
L-ZISSEN
100
AcDbLine
 10
450.5
 20
237.9999999999999
 30
0.0
 11
450.5000000000001
 21
318.0000000000001
 31
0.0
  0
LINE
  5
125
330
18
100
AcDbEntity
  8
L-ZISSEN
100
AcDbLine
 10
450.5000000000001
 20
318.0000000000001
 30
0.0
 11
484.5
 21
318.0000000000001
 31
0.0
  0
LINE
  5
126
330
18
100
AcDbEntity
  8
L-TYUSIN
100
AcDbLine
 10
529.5
 20
27.0
 30
0.0
 11
529.5
 21
455.6
 31
0.0
  0
LINE
  5
127
330
18
100
AcDbEntity
  8
L-ZISSEN
100
AcDbLine
 10
484.5
 20
168.0
 30
0.0
 11
484.5
 21
203.0
 31
0.0
  0
LINE
  5
128
330
18
100
AcDbEntity
  8
L-ZISSEN
100
AcDbLine
 10
574.5000000000001
 20
352.0
 30
0.0
 11
574.5000000000001
 21
299.0434782608695
 31
0.0
  0
LINE
  5
129
330
18
100
AcDbEntity
  8
L-ZISSEN
100
AcDbLine
 10
484.5
 20
183.0000000000001
 30
0.0
 11
574.5
 21
183.0
 31
0.0
  0
LINE
  5
12A
330
18
100
AcDbEntity
  8
L-ZISSEN
100
AcDbLine
 10
484.5
 20
322.0000000000001
 30
0.0
 11
574.5000000000001
 21
322.0000000000001
 31
0.0
  0
CIRCLE
  5
12B
330
18
100
AcDbEntity
  8
L-ZISSEN
100
AcDbCircle
 10
529.5
 20
250.0
 30
0.0
 40
29.99999999999994
  0
LINE
  5
12C
330
18
100
AcDbEntity
  8
L-ZISSEN
100
AcDbLine
 10
134.5
 20
301.0
 30
0.0
 11
123.5000026973983
 21
301.0
 31
0.0
  0
CIRCLE
  5
12D
330
18
100
AcDbEntity
  8
L-ZISSEN
100
AcDbCircle
 10
229.5
 20
278.0000000000001
 30
0.0
 40
40.0
  0
CIRCLE
  5
12E
330
18
100
AcDbEntity
  8
L-ZISSEN
100
AcDbCircle
 10
340.5
 20
208.0
 30
0.0
 40
13.0
  0
LINE
  5
12F
330
18
100
AcDbEntity
  8
L-ZISSEN
100
AcDbLine
 10
355.5
 20
208.0
 30
0.0
 11
355.5
 21
220.0000000000001
 31
0.0
  0
LINE
  5
130
330
18
100
AcDbEntity
  8
L-ZISSEN
100
AcDbLine
 10
340.5
 20
193.0
 30
0.0
 11
324.5
 21
193.0
 31
0.0
  0
CIRCLE
  5
131
330
18
100
AcDbEntity
  8
L-ZISSEN
100
AcDbCircle
 10
123.5
 20
208.0
 30
0.0
 40
13.0
  0
LINE
  5
132
330
18
100
AcDbEntity
  8
L-ZISSEN
100
AcDbLine
 10
108.5
 20
208.0
 30
0.0
 11
108.5
 21
220.0000000000001
 31
0.0
  0
LINE
  5
133
330
18
100
AcDbEntity
  8
L-ZISSEN
100
AcDbLine
 10
123.5
 20
193.0
 30
0.0
 11
134.5
 21
193.0
 31
0.0
  0
LINE
  5
134
330
18
100
AcDbEntity
  8
L-ZISSEN
100
AcDbLine
 10
324.5000000000002
 20
180.0
 30
0.0
 11
324.5
 21
193.0
 31
0.0
  0
LINE
  5
135
330
18
100
AcDbEntity
  8
L-ZISSEN
100
AcDbLine
 10
134.5
 20
180.0
 30
0.0
 11
134.5
 21
193.0
 31
0.0
  0
LINE
  5
136
330
18
100
AcDbEntity
  8
L-ZISSEN
100
AcDbLine
 10
355.5
 20
286.0
 30
0.0
 11
355.5
 21
280.0
 31
0.0
  0
LINE
  5
137
330
18
100
AcDbEntity
  8
L-ZISSEN
100
AcDbLine
 10
340.5
 20
301.0
 30
0.0
 11
333.5000000000001
 21
301.0
 31
0.0
  0
CIRCLE
  5
138
330
18
100
AcDbEntity
  8
L-ZISSEN
100
AcDbCircle
 10
340.5
 20
286.0
 30
0.0
 40
13.0
  0
LINE
  5
139
330
18
100
AcDbEntity
  8
L-ZISSEN
100
AcDbLine
 10
359.0
 20
220.0000000000001
 30
0.0
 11
355.5
 21
220.0000000000001
 31
0.0
  0
LINE
  5
13A
330
18
100
AcDbEntity
  8
L-ZISSEN
100
AcDbLine
 10
359.0
 20
220.0000000000001
 30
0.0
 11
359.0
 21
280.0
 31
0.0
  0
LINE
  5
13B
330
18
100
AcDbEntity
  8
L-ZISSEN
100
AcDbLine
 10
359.0
 20
280.0
 30
0.0
 11
355.5
 21
280.0
 31
0.0
  0
LINE
  5
13C
330
18
100
AcDbEntity
  8
L-ZISSEN
100
AcDbLine
 10
333.4999999999999
 20
338.0
 30
0.0
 11
333.5000000000001
 21
301.0
 31
0.0
  0
CIRCLE
  5
13D
330
18
100
AcDbEntity
  8
L-ZISSEN
100
AcDbCircle
 10
123.5
 20
286.0
 30
0.0
 40
13.0
  0
LINE
  5
13E
330
18
100
AcDbEntity
  8
L-ZISSEN
100
AcDbLine
 10
108.5
 20
286.0
 30
0.0
 11
108.5
 21
280.0
 31
0.0
  0
LINE
  5
13F
330
18
100
AcDbEntity
  8
L-ZISSEN
100
AcDbLine
 10
134.5
 20
338.0
 30
0.0
 11
134.5
 21
301.0
 31
0.0
  0
ARC
  5
140
330
18
100
AcDbEntity
  8
L-ZISSEN
100
AcDbCircle
 10
123.5
 20
208.0
 30
0.0
 40
15.0
100
AcDbArc
 50
180.0
 51
270.0
  0
ARC
  5
141
330
18
100
AcDbEntity
  8
L-ZISSEN
100
AcDbCircle
 10
340.5
 20
208.0
 30
0.0
 40
15.0
100
AcDbArc
 50
270.0
 51
0.0
  0
ARC
  5
142
330
18
100
AcDbEntity
  8
L-ZISSEN
100
AcDbCircle
 10
340.5
 20
286.0
 30
0.0
 40
15.0
100
AcDbArc
 50
0.0000000000002171
 51
90.0
  0
ARC
  5
143
330
18
100
AcDbEntity
  8
L-ZISSEN
100
AcDbCircle
 10
123.5
 20
286.0
 30
0.0
 40
15.0
100
AcDbArc
 50
90.0
 51
180.0
  0
LINE
  5
144
330
18
100
AcDbEntity
  8
L-ZISSEN
100
AcDbLine
 10
100.0
 20
220.0000000000001
 30
0.0
 11
108.5
 21
220.0000000000001
 31
0.0
  0
LINE
  5
145
330
18
100
AcDbEntity
  8
L-ZISSEN
100
AcDbLine
 10
100.0
 20
280.0
 30
0.0
 11
108.5
 21
280.0
 31
0.0
  0
LINE
  5
146
330
18
100
AcDbEntity
  8
L-ZISSEN
100
AcDbLine
 10
100.0
 20
220.0000000000001
 30
0.0
 11
100.0
 21
280.0
 31
0.0
  0
LINE
  5
147
330
18
100
AcDbEntity
  8
L-ZISSEN
100
AcDbLine
 10
134.5
 20
183.0
 30
0.0
 11
324.5
 21
183.0
 31
0.0
  0
LINE
  5
148
330
18
100
AcDbEntity
  8
L-ZISSEN
100
AcDbLine
 10
333.5000000000001
 20
322.0
 30
0.0
 11
134.5
 21
322.0
 31
0.0
  0
LINE
  5
149
330
18
100
AcDbEntity
  8
L-TYUSIN
100
AcDbLine
 10
90.0
 20
250.0
 30
0.0
 11
369.0
 21
250.0
 31
0.0
  0
LINE
  5
14A
330
18
100
AcDbEntity
  8
L-TYUSIN
100
AcDbLine
 10
536.5
 20
383.4061434532242
 30
0.0
 11
536.5000000000001
 21
361.4122876535436
 31
0.0
  0
ENDSEC
  0
SECTION
  2
OBJECTS
  0
DICTIONARY
  5
C
330
0
100
AcDbDictionary
281
     1
  3
ACAD_DETAILVIEWSTYLE
350
199
  3
ACAD_GROUP
350
D
  3
ACAD_LAYOUT
350
15
  3
ACAD_MATERIAL
350
18A
  3
ACAD_MLEADERSTYLE
350
190
  3
ACAD_MLINESTYLE
350
12
  3
ACAD_PLOTSETTINGS
350
14
  3
ACAD_PLOTSTYLENAME
350
E
  3
ACAD_SCALELIST
350
14F
  3
ACAD_SECTIONVIEWSTYLE
350
19A
  3
ACAD_TABLESTYLE
350
18E
  3
ACAD_VISUALSTYLE
350
171
  3
ACDB_RECOMPOSE_DATA
350
1A4
  3
AcDbVariableDictionary
350
195
  3
APPDATA
350
192
  3
PRINTCONFIG
350
1A1
  0
SUN
  5
19B
330
21
100
AcDbSun
 90
        1
290
     0
 63
     7
421
 16777215
 40
1.0
291
     1
 91
  2455826
 92
 54000000
292
     0
 70
     2
 71
   256
280
     1
  0
DICTIONARY
  5
199
102
{ACAD_REACTORS
330
C
102
}
330
C
100
AcDbDictionary
281
     1
  0
DICTIONARY
  5
D
102
{ACAD_REACTORS
330
C
102
}
330
C
100
AcDbDictionary
281
     1
  0
DICTIONARY
  5
15
102
{ACAD_REACTORS
330
C
102
}
330
C
100
AcDbDictionary
281
     1
  3
Model
350
19
  3
シート 1
350
17
  0
DICTIONARY
  5
18A
102
{ACAD_REACTORS
330
C
102
}
330
C
100
AcDbDictionary
281
     1
  3
ByBlock
350
18C
  3
ByLayer
350
18B
  3
Global
350
18D
  0
DICTIONARY
  5
190
102
{ACAD_REACTORS
330
C
102
}
330
C
100
AcDbDictionary
281
     1
  3
Standard
350
191
  0
DICTIONARY
  5
12
102
{ACAD_REACTORS
330
C
102
}
330
C
100
AcDbDictionary
281
     1
  3
Standard
350
13
  0
DICTIONARY
  5
14
102
{ACAD_REACTORS
330
C
102
}
330
C
100
AcDbDictionary
281
     1
  0
ACDBDICTIONARYWDFLT
  5
E
102
{ACAD_REACTORS
330
C
102
}
330
C
100
AcDbDictionary
281
     1
  3
Normal
350
F
100
AcDbDictionaryWithDefault
340
F
  0
DICTIONARY
  5
14F
102
{ACAD_REACTORS
330
C
102
}
330
C
100
AcDbDictionary
281
     1
  3
A0
350
150
  3
A1
350
151
  3
A2
350
152
  3
A3
350
153
  3
A4
350
154
  3
A5
350
155
  3
A6
350
156
  3
A7
350
157
  3
A8
350
158
  3
A9
350
159
  3
B0
350
15A
  3
B1
350
15B
  3
B2
350
15C
  3
B3
350
15D
  3
B4
350
15E
  3
B5
350
15F
  3
B6
350
160
  3
B7
350
161
  3
B8
350
162
  3
B9
350
163
  3
C0
350
164
  3
C1
350
165
  3
C2
350
166
  3
C3
350
167
  3
C4
350
168
  3
C5
350
169
  3
C6
350
16A
  3
C7
350
16B
  3
C8
350
16C
  3
C9
350
16D
  3
D0
350
16E
  3
D1
350
16F
  3
D2
350
170
  0
DICTIONARY
  5
19A
102
{ACAD_REACTORS
330
C
102
}
330
C
100
AcDbDictionary
281
     1
  0
DICTIONARY
  5
18E
102
{ACAD_REACTORS
330
C
102
}
330
C
100
AcDbDictionary
281
     1
  3
Standard
350
18F
  0
DICTIONARY
  5
171
102
{ACAD_REACTORS
330
C
102
}
330
C
100
AcDbDictionary
281
     1
  3
2dWireframe
350
176
  3
Basic
350
179
  3
Brighten
350
17D
  3
ColorChange
350
181
  3
Conceptual
350
17B
  3
Dim
350
17C
  3
EdgeColorOff
350
184
  3
Facepattern
350
180
  3
Flat
350
172
  3
FlatWithEdges
350
173
  3
Gouraud
350
174
  3
GouraudWithEdges
350
175
  3
Hidden
350
178
  3
JitterOff
350
182
  3
Linepattern
350
17F
  3
OverhangOff
350
183
  3
Realistic
350
17A
  3
Shaded
350
189
  3
Shaded with edges
350
188
  3
Shades of Gray
350
185
  3
Sketchy
350
186
  3
Thicken
350
17E
  3
Wireframe
350
177
  3
X-Ray
350
187
  0
XRECORD
  5
1A4
102
{ACAD_REACTORS
330
C
102
}
330
C
100
AcDbXrecord
280
     1
 90
        1
330
18F
  0
DICTIONARY
  5
195
102
{ACAD_REACTORS
330
C
102
}
330
C
100
AcDbDictionary
281
     1
  3
CANNOSCALE
350
196
  3
CMLEADERSTYLE
350
198
  3
CTABLESTYLE
350
197
  0
DICTIONARY
  5
192
102
{ACAD_REACTORS
330
C
102
}
330
C
100
AcDbDictionary
281
     1
  0
DICTIONARYVAR
  5
1A1
102
{ACAD_REACTORS
330
C
102
}
330
C
100
DictionaryVariables
280
     0
  1
0
  0
LAYOUT
  5
19
102
{ACAD_REACTORS
330
15
102
}
330
15
100
AcDbPlotSettings
  1

  2
none_device
  4
Letter_(8.50_x_11.00_Inches)
  6

 40
6.35
 41
6.35
 42
6.35
 43
6.35
 44
215.9
 45
279.4
 46
0.0
 47
0.0
 48
0.0
 49
0.0
140
0.0
141
0.0
142
1.0
143
1.0
 70
  1712
 72
     0
 73
     0
 74
     0
  7

 75
     0
 76
     0
 77
     2
 78
   300
147
1.0
148
0.0
149
0.0
100
AcDbLayout
  1
Model
 70
     1
 71
     0
 10
0.0
 20
0.0
 11
12.0
 21
9.0
 12
0.0
 22
0.0
 32
0.0
 14
24.885418538679
 24
26.0
 34
0.0
 15
580.4999999999999
 25
656.0
 35
0.0
146
0.0
 13
0.0
 23
0.0
 33
0.0
 16
1.0
 26
0.0
 36
0.0
 17
0.0
 27
1.0
 37
0.0
 76
     0
330
18
331
21
  0
LAYOUT
  5
17
102
{ACAD_REACTORS
330
15
102
}
330
15
100
AcDbPlotSettings
  1

  2
none_device
  4

  6

 40
0.0
 41
0.0
 42
0.0
 43
0.0
 44
0.0
 45
0.0
 46
0.0
 47
0.0
 48
0.0
 49
0.0
140
0.0
141
0.0
142
1.0
143
1.0
 70
   688
 72
     0
 73
     0
 74
     5
  7

 75
    16
 76
     0
 77
     2
 78
   300
147
1.0
148
0.0
149
0.0
100
AcDbLayout
  1
シート 1
 70
     0
 71
     1
 10
0.0
 20
0.0
 11
0.0
 21
0.0
 12
0.0
 22
0.0
 32
0.0
 14
1.000000000000000E+20
 24
1.000000000000000E+20
 34
1.000000000000000E+20
 15
-1.000000000000000E+20
 25
-1.000000000000000E+20
 35
-1.000000000000000E+20
146
0.0
 13
0.0
 23
0.0
 33
0.0
 16
1.0
 26
0.0
 36
0.0
 17
0.0
 27
1.0
 37
0.0
 76
     0
330
16
  0
MATERIAL
  5
18C
102
{ACAD_REACTORS
330
18A
102
}
330
18A
100
AcDbMaterial
  1
ByBlock
 72
     1
 94
      127
  0
MATERIAL
  5
18B
102
{ACAD_REACTORS
330
18A
102
}
330
18A
100
AcDbMaterial
  1
ByLayer
 72
     1
 94
      127
  0
MATERIAL
  5
18D
102
{ACAD_REACTORS
330
18A
102
}
330
18A
100
AcDbMaterial
  1
Global
 72
     1
 94
      127
  0
MLEADERSTYLE
  5
191
102
{ACAD_REACTORS
330
190
102
}
330
190
100
AcDbMLeaderStyle
179
     2
170
     2
171
     1
172
     0
 90
        2
 40
0.0
 41
0.0
173
     1
 91
-1056964608
340
10
 92
       -2
290
     1
 42
0.09
291
     1
 43
0.36
  3
Standard
341
0
 44
0.18
300

342
22
174
     1
178
     1
175
     1
176
     0
 93
-1056964608
 45
0.18
292
     0
297
     0
 46
0.18
343
0
 94
-1056964608
 47
1.0
 49
1.0
140
1.0
293
     1
141
0.0
294
     1
177
     0
142
1.0
295
     0
296
     0
143
0.125
271
     0
272
     9
273
     9
298
     0
  0
MLINESTYLE
  5
13
102
{ACAD_REACTORS
330
12
102
}
330
12
100
AcDbMlineStyle
  2
Standard
 70
     0
  3

 62
   256
 51
90.0
 52
90.0
 71
     2
 49
0.5
 62
   256
  6
BYLAYER
 49
-0.5
 62
   256
  6
BYLAYER
  0
ACDBPLACEHOLDER
  5
F
102
{ACAD_REACTORS
330
E
102
}
330
E
  0
SCALE
  5
150
102
{ACAD_REACTORS
330
14F
102
}
330
14F
100
AcDbScale
 70
     0
300
1:1
140
1.0
141
1.0
290
     1
  0
SCALE
  5
151
102
{ACAD_REACTORS
330
14F
102
}
330
14F
100
AcDbScale
 70
     0
300
1:2
140
1.0
141
2.0
290
     0
  0
SCALE
  5
152
102
{ACAD_REACTORS
330
14F
102
}
330
14F
100
AcDbScale
 70
     0
300
1:4
140
1.0
141
4.0
290
     0
  0
SCALE
  5
153
102
{ACAD_REACTORS
330
14F
102
}
330
14F
100
AcDbScale
 70
     0
300
1:5
140
1.0
141
5.0
290
     0
  0
SCALE
  5
154
102
{ACAD_REACTORS
330
14F
102
}
330
14F
100
AcDbScale
 70
     0
300
1:8
140
1.0
141
8.0
290
     0
  0
SCALE
  5
155
102
{ACAD_REACTORS
330
14F
102
}
330
14F
100
AcDbScale
 70
     0
300
1:10
140
1.0
141
10.0
290
     0
  0
SCALE
  5
156
102
{ACAD_REACTORS
330
14F
102
}
330
14F
100
AcDbScale
 70
     0
300
1:16
140
1.0
141
16.0
290
     0
  0
SCALE
  5
157
102
{ACAD_REACTORS
330
14F
102
}
330
14F
100
AcDbScale
 70
     0
300
1:20
140
1.0
141
20.0
290
     0
  0
SCALE
  5
158
102
{ACAD_REACTORS
330
14F
102
}
330
14F
100
AcDbScale
 70
     0
300
1:30
140
1.0
141
30.0
290
     0
  0
SCALE
  5
159
102
{ACAD_REACTORS
330
14F
102
}
330
14F
100
AcDbScale
 70
     0
300
1:40
140
1.0
141
40.0
290
     0
  0
SCALE
  5
15A
102
{ACAD_REACTORS
330
14F
102
}
330
14F
100
AcDbScale
 70
     0
300
1:50
140
1.0
141
50.0
290
     0
  0
SCALE
  5
15B
102
{ACAD_REACTORS
330
14F
102
}
330
14F
100
AcDbScale
 70
     0
300
1:100
140
1.0
141
100.0
290
     0
  0
SCALE
  5
15C
102
{ACAD_REACTORS
330
14F
102
}
330
14F
100
AcDbScale
 70
     0
300
2:1
140
2.0
141
1.0
290
     0
  0
SCALE
  5
15D
102
{ACAD_REACTORS
330
14F
102
}
330
14F
100
AcDbScale
 70
     0
300
4:1
140
4.0
141
1.0
290
     0
  0
SCALE
  5
15E
102
{ACAD_REACTORS
330
14F
102
}
330
14F
100
AcDbScale
 70
     0
300
8:1
140
8.0
141
1.0
290
     0
  0
SCALE
  5
15F
102
{ACAD_REACTORS
330
14F
102
}
330
14F
100
AcDbScale
 70
     0
300
10:1
140
10.0
141
1.0
290
     0
  0
SCALE
  5
160
102
{ACAD_REACTORS
330
14F
102
}
330
14F
100
AcDbScale
 70
     0
300
100:1
140
100.0
141
1.0
290
     0
  0
SCALE
  5
161
102
{ACAD_REACTORS
330
14F
102
}
330
14F
100
AcDbScale
 70
     0
300
1/128" = 1'-0"
140
0.0078125
141
12.0
290
     0
  0
SCALE
  5
162
102
{ACAD_REACTORS
330
14F
102
}
330
14F
100
AcDbScale
 70
     0
300
1/64" = 1'-0"
140
0.015625
141
12.0
290
     0
  0
SCALE
  5
163
102
{ACAD_REACTORS
330
14F
102
}
330
14F
100
AcDbScale
 70
     0
300
1/32" = 1'-0"
140
0.03125
141
12.0
290
     0
  0
SCALE
  5
164
102
{ACAD_REACTORS
330
14F
102
}
330
14F
100
AcDbScale
 70
     0
300
1/16" = 1'-0"
140
0.0625
141
12.0
290
     0
  0
SCALE
  5
165
102
{ACAD_REACTORS
330
14F
102
}
330
14F
100
AcDbScale
 70
     0
300
3/32" = 1'-0"
140
0.09375
141
12.0
290
     0
  0
SCALE
  5
166
102
{ACAD_REACTORS
330
14F
102
}
330
14F
100
AcDbScale
 70
     0
300
1/8" = 1'-0"
140
0.125
141
12.0
290
     0
  0
SCALE
  5
167
102
{ACAD_REACTORS
330
14F
102
}
330
14F
100
AcDbScale
 70
     0
300
3/16" = 1'-0"
140
0.1875
141
12.0
290
     0
  0
SCALE
  5
168
102
{ACAD_REACTORS
330
14F
102
}
330
14F
100
AcDbScale
 70
     0
300
1/4" = 1'-0"
140
0.25
141
12.0
290
     0
  0
SCALE
  5
169
102
{ACAD_REACTORS
330
14F
102
}
330
14F
100
AcDbScale
 70
     0
300
3/8" = 1'-0"
140
0.375
141
12.0
290
     0
  0
SCALE
  5
16A
102
{ACAD_REACTORS
330
14F
102
}
330
14F
100
AcDbScale
 70
     0
300
1/2" = 1'-0"
140
0.5
141
12.0
290
     0
  0
SCALE
  5
16B
102
{ACAD_REACTORS
330
14F
102
}
330
14F
100
AcDbScale
 70
     0
300
3/4" = 1'-0"
140
0.75
141
12.0
290
     0
  0
SCALE
  5
16C
102
{ACAD_REACTORS
330
14F
102
}
330
14F
100
AcDbScale
 70
     0
300
1" = 1'-0"
140
1.0
141
12.0
290
     0
  0
SCALE
  5
16D
102
{ACAD_REACTORS
330
14F
102
}
330
14F
100
AcDbScale
 70
     0
300
1-1/2" = 1'-0"
140
1.5
141
12.0
290
     0
  0
SCALE
  5
16E
102
{ACAD_REACTORS
330
14F
102
}
330
14F
100
AcDbScale
 70
     0
300
3" = 1'-0"
140
3.0
141
12.0
290
     0
  0
SCALE
  5
16F
102
{ACAD_REACTORS
330
14F
102
}
330
14F
100
AcDbScale
 70
     0
300
6" = 1'-0"
140
6.0
141
12.0
290
     0
  0
SCALE
  5
170
102
{ACAD_REACTORS
330
14F
102
}
330
14F
100
AcDbScale
 70
     0
300
1'-0" = 1'-0"
140
12.0
141
12.0
290
     0
  0
TABLESTYLE
  5
18F
102
{ACAD_REACTORS
330
18E
102
}
102
{ACAD_XDICTIONARY
360
1A2
102
}
330
18E
100
AcDbTableStyle
  3
Standard
 70
     0
 71
     0
 40
0.06
 41
0.06
280
     0
281
     0
  7
STANDARD
140
0.18
170
     2
 62
     0
 63
   257
283
     0
 90
        4
 91
        0
  1

274
    -2
284
     1
 64
     0
275
    -2
285
     1
 65
     0
276
    -2
286
     1
 66
     0
277
    -2
287
     1
 67
     0
278
    -2
288
     1
 68
     0
279
    -2
289
     1
 69
     0
  7
STANDARD
140
0.25
170
     5
 62
     0
 63
   257
283
     0
 90
        4
 91
        0
  1

274
    -2
284
     1
 64
     0
275
    -2
285
     1
 65
     0
276
    -2
286
     1
 66
     0
277
    -2
287
     1
 67
     0
278
    -2
288
     1
 68
     0
279
    -2
289
     1
 69
     0
  7
STANDARD
140
0.18
170
     5
 62
     0
 63
   257
283
     0
 90
        4
 91
        0
  1

274
    -2
284
     1
 64
     0
275
    -2
285
     1
 65
     0
276
    -2
286
     1
 66
     0
277
    -2
287
     1
 67
     0
278
    -2
288
     1
 68
     0
279
    -2
289
     1
 69
     0
  0
VISUALSTYLE
  5
176
102
{ACAD_REACTORS
330
171
102
}
330
171
100
AcDbVisualStyle
  2
2dWireframe
 70
     4
177
     3
291
     0
 70
    58
 90
        0
176
     1
 90
        2
176
     1
 90
        0
176
     1
 90
        0
176
     1
 40
0.6
176
     1
 40
30.0
176
     1
 62
     7
420
 16777215
176
     1
 90
        1
176
     1
 90
        4
176
     1
 62
     7
176
     1
 62
   257
176
     1
 90
        1
176
     1
 90
        1
176
     1
 40
1.0
176
     1
 90
        0
176
     1
 62
   257
176
     1
 40
1.0
176
     1
 90
        1
176
     1
 90
        6
176
     1
 90
        2
176
     1
 62
     7
176
     1
 90
        5
176
     1
 90
        0
176
     1
 90
        0
176
     1
290
     0
176
     1
 90
        1
176
     1
 40
0.0
176
     1
 90
        0
176
     1
290
     1
176
     1
290
     1
176
     1
290
     0
176
     1
290
     0
176
     1
290
     0
176
     1
290
     0
176
     1
290
     0
176
     1
290
     0
176
     1
290
     0
176
     1
 90
       50
176
     1
 40
0.0
176
     1
 40
1.0
176
     1
 90
        0
176
     1
 62
    18
420
        0
176
     1
 90
       50
176
     1
 90
        3
176
     1
 62
     5
420
      255
176
     1
290
     0
176
     1
 90
       50
176
     1
 90
       50
176
     1
 90
       50
176
     1
290
     0
176
     1
 90
       50
176
     1
 62
   256
176
     0
 40
1.0
176
     0
 90
        2
176
     1
  1
strokes_ogs.tif
176
     1
290
     0
176
     1
 40
1.0
176
     1
 40
1.0
176
     1
  0
VISUALSTYLE
  5
179
102
{ACAD_REACTORS
330
171
102
}
330
171
100
AcDbVisualStyle
  2
Basic
 70
     7
177
     3
291
     1
 70
    58
 90
        1
176
     1
 90
        0
176
     1
 90
        1
176
     1
 90
        0
176
     1
 40
0.6
176
     1
 40
30.0
176
     1
 62
     7
420
 16777215
176
     1
 90
        0
176
     1
 90
        4
176
     1
 62
     7
176
     1
 62
   257
176
     1
 90
        1
176
     1
 90
        1
176
     1
 40
1.0
176
     1
 90
        8
176
     1
 62
     7
176
     1
 40
1.0
176
     1
 90
        1
176
     1
 90
        6
176
     1
 90
        2
176
     1
 62
     7
176
     1
 90
        5
176
     1
 90
        0
176
     1
 90
        0
176
     1
290
     0
176
     1
 90
        1
176
     1
 40
0.0
176
     1
 90
        0
176
     1
290
     0
176
     1
290
     1
176
     1
290
     1
176
     1
290
     0
176
     1
290
     0
176
     1
290
     0
176
     1
290
     0
176
     1
290
     0
176
     1
290
     0
176
     1
 90
       50
176
     1
 40
0.0
176
     1
 40
1.0
176
     1
 90
        0
176
     1
 62
    18
420
        0
176
     1
 90
       50
176
     1
 90
        3
176
     1
 62
     5
420
      255
176
     1
290
     0
176
     1
 90
       50
176
     1
 90
       50
176
     1
 90
       50
176
     1
290
     0
176
     1
 90
       50
176
     1
 62
   256
176
     0
 40
1.0
176
     0
 90
        2
176
     1
  1
strokes_ogs.tif
176
     1
290
     0
176
     1
 40
1.0
176
     1
 40
1.0
176
     1
  0
VISUALSTYLE
  5
17D
102
{ACAD_REACTORS
330
171
102
}
330
171
100
AcDbVisualStyle
  2
Brighten
 70
    12
177
     3
291
     1
 70
    58
 90
        2
176
     1
 90
        2
176
     1
 90
        0
176
     1
 90
        0
176
     1
 40
0.6
176
     1
 40
30.0
176
     1
 62
     7
420
 16777215
176
     1
 90
        1
176
     1
 90
        4
176
     1
 62
     7
176
     1
 62
   257
176
     1
 90
        1
176
     1
 90
        1
176
     1
 40
1.0
176
     1
 90
        8
176
     1
 62
     7
176
     1
 40
1.0
176
     1
 90
        1
176
     1
 90
        6
176
     1
 90
        2
176
     1
 62
     7
176
     1
 90
        5
176
     1
 90
        0
176
     1
 90
        0
176
     1
290
     0
176
     1
 90
        1
176
     1
 40
50.0
176
     1
 90
        0
176
     1
290
     0
176
     1
290
     1
176
     1
290
     1
176
     1
290
     0
176
     1
290
     0
176
     1
290
     0
176
     1
290
     0
176
     1
290
     0
176
     1
290
     0
176
     1
 90
       50
176
     1
 40
0.0
176
     1
 40
1.0
176
     1
 90
        0
176
     1
 62
    18
420
        0
176
     1
 90
       50
176
     1
 90
        3
176
     1
 62
     5
420
      255
176
     1
290
     0
176
     1
 90
       50
176
     1
 90
       50
176
     1
 90
       50
176
     1
290
     0
176
     1
 90
       50
176
     1
 62
   256
176
     0
 40
1.0
176
     0
 90
        2
176
     1
  1
strokes_ogs.tif
176
     1
290
     0
176
     1
 40
1.0
176
     1
 40
1.0
176
     1
  0
VISUALSTYLE
  5
181
102
{ACAD_REACTORS
330
171
102
}
330
171
100
AcDbVisualStyle
  2
ColorChange
 70
    16
177
     3
291
     1
 70
    58
 90
        2
176
     1
 90
        2
176
     1
 90
        3
176
     1
 90
        0
176
     1
 40
0.6
176
     1
 40
30.0
176
     1
 62
     8
420
  8421504
176
     1
 90
        1
176
     1
 90
        4
176
     1
 62
     7
176
     1
 62
   257
176
     1
 90
        1
176
     1
 90
        1
176
     1
 40
1.0
176
     1
 90
        8
176
     1
 62
     8
420
  8421504
176
     1
 40
1.0
176
     1
 90
        1
176
     1
 90
        6
176
     1
 90
        2
176
     1
 62
     7
176
     1
 90
        5
176
     1
 90
        0
176
     1
 90
        0
176
     1
290
     0
176
     1
 90
        1
176
     1
 40
0.0
176
     1
 90
        0
176
     1
290
     0
176
     1
290
     1
176
     1
290
     1
176
     1
290
     0
176
     1
290
     0
176
     1
290
     0
176
     1
290
     0
176
     1
290
     0
176
     1
290
     0
176
     1
 90
       50
176
     1
 40
0.0
176
     1
 40
1.0
176
     1
 90
        0
176
     1
 62
    18
420
        0
176
     1
 90
       50
176
     1
 90
        3
176
     1
 62
     5
420
      255
176
     1
290
     0
176
     1
 90
       50
176
     1
 90
       50
176
     1
 90
       50
176
     1
290
     0
176
     1
 90
       50
176
     1
 62
   256
176
     0
 40
1.0
176
     0
 90
        2
176
     1
  1
strokes_ogs.tif
176
     1
290
     0
176
     1
 40
1.0
176
     1
 40
1.0
176
     1
  0
VISUALSTYLE
  5
17B
102
{ACAD_REACTORS
330
171
102
}
330
171
100
AcDbVisualStyle
  2
Conceptual
 70
     9
177
     3
291
     0
 70
    58
 90
        3
176
     1
 90
        2
176
     1
 90
        0
176
     1
 90
        0
176
     1
 40
0.6
176
     1
 40
30.0
176
     1
 62
     7
420
 16777215
176
     1
 90
        2
176
     1
 90
        2
176
     1
 62
     7
176
     1
 62
   257
176
     1
 90
        1
176
     1
 90
        1
176
     1
 40
179.0
176
     1
 90
        8
176
     1
 62
     7
176
     1
 40
1.0
176
     1
 90
        1
176
     1
 90
        6
176
     1
 90
        2
176
     1
 62
     7
176
     1
 90
        3
176
     1
 90
        0
176
     1
 90
        0
176
     1
290
     0
176
     1
 90
        1
176
     1
 40
0.0
176
     1
 90
        0
176
     1
290
     0
176
     1
290
     1
176
     1
290
     1
176
     1
290
     0
176
     1
290
     0
176
     1
290
     0
176
     1
290
     0
176
     1
290
     0
176
     1
290
     0
176
     1
 90
       50
176
     1
 40
0.0
176
     1
 40
1.0
176
     1
 90
        0
176
     1
 62
    18
420
        0
176
     1
 90
       50
176
     1
 90
        3
176
     1
 62
     5
420
      255
176
     1
290
     0
176
     1
 90
       50
176
     1
 90
       50
176
     1
 90
       50
176
     1
290
     0
176
     1
 90
       50
176
     1
 62
   256
176
     0
 40
1.0
176
     0
 90
        2
176
     1
  1
strokes_ogs.tif
176
     1
290
     0
176
     1
 40
1.0
176
     1
 40
1.0
176
     1
  0
VISUALSTYLE
  5
17C
102
{ACAD_REACTORS
330
171
102
}
330
171
100
AcDbVisualStyle
  2
Dim
 70
    11
177
     3
291
     1
 70
    58
 90
        2
176
     1
 90
        2
176
     1
 90
        0
176
     1
 90
        0
176
     1
 40
0.6
176
     1
 40
30.0
176
     1
 62
     7
420
 16777215
176
     1
 90
        1
176
     1
 90
        4
176
     1
 62
     7
176
     1
 62
   257
176
     1
 90
        1
176
     1
 90
        1
176
     1
 40
1.0
176
     1
 90
        8
176
     1
 62
     7
176
     1
 40
1.0
176
     1
 90
        1
176
     1
 90
        6
176
     1
 90
        2
176
     1
 62
     7
176
     1
 90
        5
176
     1
 90
        0
176
     1
 90
        0
176
     1
290
     0
176
     1
 90
        1
176
     1
 40
-50.0
176
     1
 90
        0
176
     1
290
     0
176
     1
290
     1
176
     1
290
     1
176
     1
290
     0
176
     1
290
     0
176
     1
290
     0
176
     1
290
     0
176
     1
290
     0
176
     1
290
     0
176
     1
 90
       50
176
     1
 40
0.0
176
     1
 40
1.0
176
     1
 90
        0
176
     1
 62
    18
420
        0
176
     1
 90
       50
176
     1
 90
        3
176
     1
 62
     5
420
      255
176
     1
290
     0
176
     1
 90
       50
176
     1
 90
       50
176
     1
 90
       50
176
     1
290
     0
176
     1
 90
       50
176
     1
 62
   256
176
     0
 40
1.0
176
     0
 90
        2
176
     1
  1
strokes_ogs.tif
176
     1
290
     0
176
     1
 40
1.0
176
     1
 40
1.0
176
     1
  0
VISUALSTYLE
  5
184
102
{ACAD_REACTORS
330
171
102
}
330
171
100
AcDbVisualStyle
  2
EdgeColorOff
 70
    22
177
     3
291
     1
 70
    58
 90
        2
176
     0
 90
        2
176
     0
 90
        0
176
     0
 90
        0
176
     0
 40
0.6
176
     0
 40
30.0
176
     0
 62
     7
420
 16777215
176
     0
 90
        1
176
     0
 90
        4
176
     0
 62
     7
176
     0
 62
   257
176
     0
 90
        1
176
     0
 90
        1
176
     0
 40
1.0
176
     0
 90
        8
176
     2
 62
     7
176
     0
 40
1.0
176
     0
 90
        1
176
     0
 90
        6
176
     0
 90
        2
176
     0
 62
     7
176
     0
 90
        5
176
     0
 90
        0
176
     0
 90
        0
176
     0
290
     0
176
     0
 90
        1
176
     0
 40
0.0
176
     0
 90
        0
176
     0
290
     0
176
     0
290
     1
176
     0
290
     1
176
     0
290
     0
176
     0
290
     0
176
     0
290
     0
176
     0
290
     0
176
     0
290
     0
176
     0
290
     0
176
     0
 90
       50
176
     0
 40
0.0
176
     0
 40
1.0
176
     0
 90
        0
176
     0
 62
    18
420
        0
176
     0
 90
       50
176
     0
 90
        3
176
     0
 62
     5
420
      255
176
     0
290
     0
176
     0
 90
       50
176
     0
 90
       50
176
     0
 90
       50
176
     0
290
     0
176
     0
 90
       50
176
     0
 62
   256
176
     0
 40
1.0
176
     0
 90
        2
176
     0
  1
strokes_ogs.tif
176
     0
290
     0
176
     0
 40
1.0
176
     0
 40
1.0
176
     0
  0
VISUALSTYLE
  5
180
102
{ACAD_REACTORS
330
171
102
}
330
171
100
AcDbVisualStyle
  2
Facepattern
 70
    15
177
     3
291
     1
 70
    58
 90
        2
176
     1
 90
        2
176
     1
 90
        0
176
     1
 90
        0
176
     1
 40
0.6
176
     1
 40
30.0
176
     1
 62
     7
420
 16777215
176
     1
 90
        1
176
     1
 90
        4
176
     1
 62
     7
176
     1
 62
   257
176
     1
 90
        1
176
     1
 90
        1
176
     1
 40
1.0
176
     1
 90
        8
176
     1
 62
     7
176
     1
 40
1.0
176
     1
 90
        1
176
     1
 90
        6
176
     1
 90
        2
176
     1
 62
     7
176
     1
 90
        5
176
     1
 90
        0
176
     1
 90
        0
176
     1
290
     0
176
     1
 90
        1
176
     1
 40
0.0
176
     1
 90
        0
176
     1
290
     0
176
     1
290
     1
176
     1
290
     1
176
     1
290
     0
176
     1
290
     0
176
     1
290
     0
176
     1
290
     0
176
     1
290
     0
176
     1
290
     0
176
     1
 90
       50
176
     1
 40
0.0
176
     1
 40
1.0
176
     1
 90
        0
176
     1
 62
    18
420
        0
176
     1
 90
       50
176
     1
 90
        3
176
     1
 62
     5
420
      255
176
     1
290
     0
176
     1
 90
       50
176
     1
 90
       50
176
     1
 90
       50
176
     1
290
     0
176
     1
 90
       50
176
     1
 62
   256
176
     0
 40
1.0
176
     0
 90
        2
176
     1
  1
strokes_ogs.tif
176
     1
290
     0
176
     1
 40
1.0
176
     1
 40
1.0
176
     1
  0
VISUALSTYLE
  5
172
102
{ACAD_REACTORS
330
171
102
}
330
171
100
AcDbVisualStyle
  2
Flat
 70
     0
177
     3
291
     1
 70
    58
 90
        2
176
     1
 90
        1
176
     1
 90
        1
176
     1
 90
        2
176
     1
 40
0.6
176
     1
 40
30.0
176
     1
 62
     7
420
 16777215
176
     1
 90
        0
176
     1
 90
        0
176
     1
 62
     7
176
     1
 62
   257
176
     1
 90
        1
176
     1
 90
        1
176
     1
 40
1.0
176
     1
 90
        8
176
     1
 62
     7
176
     1
 40
1.0
176
     1
 90
        1
176
     1
 90
        6
176
     1
 90
        2
176
     1
 62
     7
176
     1
 90
        5
176
     1
 90
        0
176
     1
 90
        0
176
     1
290
     0
176
     1
 90
       13
176
     1
 40
0.0
176
     1
 90
        0
176
     1
290
     0
176
     1
290
     1
176
     1
290
     1
176
     1
290
     0
176
     1
290
     0
176
     1
290
     0
176
     1
290
     0
176
     1
290
     0
176
     1
290
     0
176
     1
 90
       50
176
     1
 40
0.0
176
     1
 40
1.0
176
     1
 90
        0
176
     1
 62
    18
420
        0
176
     1
 90
       50
176
     1
 90
        3
176
     1
 62
     5
420
      255
176
     1
290
     0
176
     1
 90
       50
176
     1
 90
       50
176
     1
 90
       50
176
     1
290
     0
176
     1
 90
       50
176
     1
 62
   256
176
     0
 40
1.0
176
     0
 90
        2
176
     1
  1
strokes_ogs.tif
176
     1
290
     0
176
     1
 40
1.0
176
     1
 40
1.0
176
     1
  0
VISUALSTYLE
  5
173
102
{ACAD_REACTORS
330
171
102
}
330
171
100
AcDbVisualStyle
  2
FlatWithEdges
 70
     1
177
     3
291
     1
 70
    58
 90
        2
176
     1
 90
        1
176
     1
 90
        1
176
     1
 90
        2
176
     1
 40
0.6
176
     1
 40
30.0
176
     1
 62
     7
420
 16777215
176
     1
 90
        1
176
     1
 90
        0
176
     1
 62
     7
176
     1
 62
   257
176
     1
 90
        1
176
     1
 90
        1
176
     1
 40
1.0
176
     1
 90
        0
176
     1
 62
   257
176
     1
 40
1.0
176
     1
 90
        1
176
     1
 90
        6
176
     1
 90
        2
176
     1
 62
     7
176
     1
 90
        5
176
     1
 90
        0
176
     1
 90
        0
176
     1
290
     0
176
     1
 90
       13
176
     1
 40
0.0
176
     1
 90
        0
176
     1
290
     0
176
     1
290
     1
176
     1
290
     1
176
     1
290
     0
176
     1
290
     0
176
     1
290
     0
176
     1
290
     0
176
     1
290
     0
176
     1
290
     0
176
     1
 90
       50
176
     1
 40
0.0
176
     1
 40
1.0
176
     1
 90
        0
176
     1
 62
    18
420
        0
176
     1
 90
       50
176
     1
 90
        3
176
     1
 62
     5
420
      255
176
     1
290
     0
176
     1
 90
       50
176
     1
 90
       50
176
     1
 90
       50
176
     1
290
     0
176
     1
 90
       50
176
     1
 62
   256
176
     0
 40
1.0
176
     0
 90
        2
176
     1
  1
strokes_ogs.tif
176
     1
290
     0
176
     1
 40
1.0
176
     1
 40
1.0
176
     1
  0
VISUALSTYLE
  5
174
102
{ACAD_REACTORS
330
171
102
}
330
171
100
AcDbVisualStyle
  2
Gouraud
 70
     2
177
     3
291
     1
 70
    58
 90
        2
176
     1
 90
        2
176
     1
 90
        1
176
     1
 90
        2
176
     1
 40
0.6
176
     1
 40
30.0
176
     1
 62
     7
420
 16777215
176
     1
 90
        0
176
     1
 90
        0
176
     1
 62
     7
176
     1
 62
   257
176
     1
 90
        1
176
     1
 90
        1
176
     1
 40
1.0
176
     1
 90
        0
176
     1
 62
     7
176
     1
 40
1.0
176
     1
 90
        1
176
     1
 90
        6
176
     1
 90
        2
176
     1
 62
     7
176
     1
 90
        5
176
     1
 90
        0
176
     1
 90
        0
176
     1
290
     0
176
     1
 90
       13
176
     1
 40
0.0
176
     1
 90
        0
176
     1
290
     0
176
     1
290
     1
176
     1
290
     1
176
     1
290
     0
176
     1
290
     0
176
     1
290
     0
176
     1
290
     0
176
     1
290
     0
176
     1
290
     0
176
     1
 90
       50
176
     1
 40
0.0
176
     1
 40
1.0
176
     1
 90
        0
176
     1
 62
    18
420
        0
176
     1
 90
       50
176
     1
 90
        3
176
     1
 62
     5
420
      255
176
     1
290
     0
176
     1
 90
       50
176
     1
 90
       50
176
     1
 90
       50
176
     1
290
     0
176
     1
 90
       50
176
     1
 62
   256
176
     0
 40
1.0
176
     0
 90
        2
176
     1
  1
strokes_ogs.tif
176
     1
290
     0
176
     1
 40
1.0
176
     1
 40
1.0
176
     1
  0
VISUALSTYLE
  5
175
102
{ACAD_REACTORS
330
171
102
}
330
171
100
AcDbVisualStyle
  2
GouraudWithEdges
 70
     3
177
     3
291
     1
 70
    58
 90
        2
176
     1
 90
        2
176
     1
 90
        1
176
     1
 90
        2
176
     1
 40
0.6
176
     1
 40
30.0
176
     1
 62
     7
420
 16777215
176
     1
 90
        1
176
     1
 90
        0
176
     1
 62
     7
176
     1
 62
   257
176
     1
 90
        1
176
     1
 90
        1
176
     1
 40
1.0
176
     1
 90
        0
176
     1
 62
   257
176
     1
 40
1.0
176
     1
 90
        1
176
     1
 90
        6
176
     1
 90
        2
176
     1
 62
     7
176
     1
 90
        5
176
     1
 90
        0
176
     1
 90
        0
176
     1
290
     0
176
     1
 90
       13
176
     1
 40
0.0
176
     1
 90
        0
176
     1
290
     0
176
     1
290
     1
176
     1
290
     1
176
     1
290
     0
176
     1
290
     0
176
     1
290
     0
176
     1
290
     0
176
     1
290
     0
176
     1
290
     0
176
     1
 90
       50
176
     1
 40
0.0
176
     1
 40
1.0
176
     1
 90
        0
176
     1
 62
    18
420
        0
176
     1
 90
       50
176
     1
 90
        3
176
     1
 62
     5
420
      255
176
     1
290
     0
176
     1
 90
       50
176
     1
 90
       50
176
     1
 90
       50
176
     1
290
     0
176
     1
 90
       50
176
     1
 62
   256
176
     0
 40
1.0
176
     0
 90
        2
176
     1
  1
strokes_ogs.tif
176
     1
290
     0
176
     1
 40
1.0
176
     1
 40
1.0
176
     1
  0
VISUALSTYLE
  5
178
102
{ACAD_REACTORS
330
171
102
}
330
171
100
AcDbVisualStyle
  2
Hidden
 70
     6
177
     3
291
     0
 70
    58
 90
        1
176
     1
 90
        2
176
     1
 90
        2
176
     1
 90
        0
176
     1
 40
0.6
176
     1
 40
30.0
176
     1
 62
     7
420
 16777215
176
     1
 90
        2
176
     1
 90
        2
176
     1
 62
     7
176
     1
 62
   257
176
     1
 90
        2
176
     1
 90
        1
176
     1
 40
40.0
176
     1
 90
        0
176
     1
 62
   257
176
     1
 40
1.0
176
     1
 90
        1
176
     1
 90
        6
176
     1
 90
        2
176
     1
 62
     7
176
     1
 90
        3
176
     1
 90
        0
176
     1
 90
        0
176
     1
290
     0
176
     1
 90
        1
176
     1
 40
0.0
176
     1
 90
        0
176
     1
290
     0
176
     1
290
     1
176
     1
290
     1
176
     1
290
     0
176
     1
290
     0
176
     1
290
     0
176
     1
290
     0
176
     1
290
     0
176
     1
290
     0
176
     1
 90
       50
176
     1
 40
0.0
176
     1
 40
1.0
176
     1
 90
        0
176
     1
 62
    18
420
        0
176
     1
 90
       50
176
     1
 90
        3
176
     1
 62
     5
420
      255
176
     1
290
     0
176
     1
 90
       50
176
     1
 90
       50
176
     1
 90
       50
176
     1
290
     0
176
     1
 90
       50
176
     1
 62
   256
176
     0
 40
1.0
176
     0
 90
        2
176
     1
  1
strokes_ogs.tif
176
     1
290
     0
176
     1
 40
1.0
176
     1
 40
1.0
176
     1
  0
VISUALSTYLE
  5
182
102
{ACAD_REACTORS
330
171
102
}
330
171
100
AcDbVisualStyle
  2
JitterOff
 70
    20
177
     3
291
     1
 70
    58
 90
        2
176
     0
 90
        2
176
     0
 90
        0
176
     0
 90
        0
176
     0
 40
0.6
176
     0
 40
30.0
176
     0
 62
     7
420
 16777215
176
     0
 90
        1
176
     0
 90
        4
176
     0
 62
     7
176
     0
 62
   257
176
     0
 90
        1
176
     0
 90
        1
176
     0
 40
1.0
176
     0
 90
       10
176
     2
 62
     7
176
     0
 40
1.0
176
     0
 90
        1
176
     0
 90
        6
176
     0
 90
        2
176
     0
 62
     7
176
     0
 90
        5
176
     0
 90
        0
176
     0
 90
        0
176
     0
290
     0
176
     0
 90
        1
176
     0
 40
0.0
176
     0
 90
        0
176
     0
290
     0
176
     0
290
     1
176
     0
290
     1
176
     0
290
     0
176
     0
290
     0
176
     0
290
     0
176
     0
290
     0
176
     0
290
     0
176
     0
290
     0
176
     0
 90
       50
176
     0
 40
0.0
176
     0
 40
1.0
176
     0
 90
        0
176
     0
 62
    18
420
        0
176
     0
 90
       50
176
     0
 90
        3
176
     0
 62
     5
420
      255
176
     0
290
     0
176
     0
 90
       50
176
     0
 90
       50
176
     0
 90
       50
176
     0
290
     0
176
     0
 90
       50
176
     0
 62
   256
176
     0
 40
1.0
176
     0
 90
        2
176
     0
  1
strokes_ogs.tif
176
     0
290
     0
176
     0
 40
1.0
176
     0
 40
1.0
176
     0
  0
VISUALSTYLE
  5
17F
102
{ACAD_REACTORS
330
171
102
}
330
171
100
AcDbVisualStyle
  2
Linepattern
 70
    14
177
     3
291
     1
 70
    58
 90
        2
176
     1
 90
        2
176
     1
 90
        0
176
     1
 90
        0
176
     1
 40
0.6
176
     1
 40
30.0
176
     1
 62
     7
420
 16777215
176
     1
 90
        1
176
     1
 90
        4
176
     1
 62
     7
176
     1
 62
   257
176
     1
 90
        7
176
     1
 90
        7
176
     1
 40
1.0
176
     1
 90
        8
176
     1
 62
     7
176
     1
 40
1.0
176
     1
 90
        1
176
     1
 90
        6
176
     1
 90
        2
176
     1
 62
     7
176
     1
 90
        5
176
     1
 90
        0
176
     1
 90
        0
176
     1
290
     0
176
     1
 90
        1
176
     1
 40
0.0
176
     1
 90
        0
176
     1
290
     0
176
     1
290
     1
176
     1
290
     1
176
     1
290
     0
176
     1
290
     0
176
     1
290
     0
176
     1
290
     0
176
     1
290
     0
176
     1
290
     0
176
     1
 90
       50
176
     1
 40
0.0
176
     1
 40
1.0
176
     1
 90
        0
176
     1
 62
    18
420
        0
176
     1
 90
       50
176
     1
 90
        3
176
     1
 62
     5
420
      255
176
     1
290
     0
176
     1
 90
       50
176
     1
 90
       50
176
     1
 90
       50
176
     1
290
     0
176
     1
 90
       50
176
     1
 62
   256
176
     0
 40
1.0
176
     0
 90
        2
176
     1
  1
strokes_ogs.tif
176
     1
290
     0
176
     1
 40
1.0
176
     1
 40
1.0
176
     1
  0
VISUALSTYLE
  5
183
102
{ACAD_REACTORS
330
171
102
}
330
171
100
AcDbVisualStyle
  2
OverhangOff
 70
    21
177
     3
291
     1
 70
    58
 90
        2
176
     0
 90
        2
176
     0
 90
        0
176
     0
 90
        0
176
     0
 40
0.6
176
     0
 40
30.0
176
     0
 62
     7
420
 16777215
176
     0
 90
        1
176
     0
 90
        4
176
     0
 62
     7
176
     0
 62
   257
176
     0
 90
        1
176
     0
 90
        1
176
     0
 40
1.0
176
     0
 90
        9
176
     2
 62
     7
176
     0
 40
1.0
176
     0
 90
        1
176
     0
 90
        6
176
     0
 90
        2
176
     0
 62
     7
176
     0
 90
        5
176
     0
 90
        0
176
     0
 90
        0
176
     0
290
     0
176
     0
 90
        1
176
     0
 40
0.0
176
     0
 90
        0
176
     0
290
     0
176
     0
290
     1
176
     0
290
     1
176
     0
290
     0
176
     0
290
     0
176
     0
290
     0
176
     0
290
     0
176
     0
290
     0
176
     0
290
     0
176
     0
 90
       50
176
     0
 40
0.0
176
     0
 40
1.0
176
     0
 90
        0
176
     0
 62
    18
420
        0
176
     0
 90
       50
176
     0
 90
        3
176
     0
 62
     5
420
      255
176
     0
290
     0
176
     0
 90
       50
176
     0
 90
       50
176
     0
 90
       50
176
     0
290
     0
176
     0
 90
       50
176
     0
 62
   256
176
     0
 40
1.0
176
     0
 90
        2
176
     0
  1
strokes_ogs.tif
176
     0
290
     0
176
     0
 40
1.0
176
     0
 40
1.0
176
     0
  0
VISUALSTYLE
  5
17A
102
{ACAD_REACTORS
330
171
102
}
330
171
100
AcDbVisualStyle
  2
Realistic
 70
     8
177
     3
291
     0
 70
    58
 90
        2
176
     1
 90
        3
176
     1
 90
        0
176
     1
 90
        2
176
     1
 40
0.6
176
     1
 40
30.0
176
     1
 62
     7
420
 16777215
176
     1
 90
        0
176
     1
 90
        0
176
     1
 62
     7
176
     1
 62
   257
176
     1
 90
        1
176
     1
 90
        1
176
     1
 40
1.0
176
     1
 90
        8
176
     1
 62
   257
176
     1
 40
1.0
176
     1
 90
        1
176
     1
 90
        6
176
     1
 90
        2
176
     1
 62
     7
176
     1
 90
        3
176
     1
 90
        0
176
     1
 90
        0
176
     1
290
     0
176
     1
 90
       13
176
     1
 40
0.0
176
     1
 90
        0
176
     1
290
     0
176
     1
290
     1
176
     1
290
     1
176
     1
290
     0
176
     1
290
     0
176
     1
290
     0
176
     1
290
     0
176
     1
290
     0
176
     1
290
     0
176
     1
 90
       50
176
     1
 40
0.0
176
     1
 40
1.0
176
     1
 90
        0
176
     1
 62
    18
420
        0
176
     1
 90
       50
176
     1
 90
        3
176
     1
 62
     5
420
      255
176
     1
290
     0
176
     1
 90
       50
176
     1
 90
       50
176
     1
 90
       50
176
     1
290
     0
176
     1
 90
       50
176
     1
 62
   256
176
     0
 40
1.0
176
     0
 90
        2
176
     1
  1
strokes_ogs.tif
176
     1
290
     0
176
     1
 40
1.0
176
     1
 40
1.0
176
     1
  0
VISUALSTYLE
  5
189
102
{ACAD_REACTORS
330
171
102
}
330
171
100
AcDbVisualStyle
  2
Shaded
 70
    27
177
     3
291
     0
 70
    58
 90
        2
176
     1
 90
        2
176
     1
 90
        1
176
     1
 90
        2
176
     1
 40
0.6
176
     1
 40
30.0
176
     1
 62
     7
420
 16777215
176
     1
 90
        0
176
     1
 90
        4
176
     1
 62
     7
176
     1
 62
   257
176
     1
 90
        1
176
     1
 90
        1
176
     1
 40
1.0
176
     1
 90
        8
176
     1
 62
   257
176
     1
 40
1.0
176
     1
 90
        1
176
     1
 90
        6
176
     1
 90
        2
176
     1
 62
     8
420
  7895160
176
     1
 90
        3
176
     1
 90
        0
176
     1
 90
        0
176
     1
290
     0
176
     1
 90
        5
176
     1
 40
0.0
176
     1
 90
        0
176
     1
290
     0
176
     1
290
     1
176
     1
290
     1
176
     1
290
     0
176
     1
290
     0
176
     1
290
     0
176
     1
290
     0
176
     1
290
     0
176
     1
290
     0
176
     1
 90
       50
176
     1
 40
0.0
176
     1
 40
1.0
176
     1
 90
        0
176
     1
 62
    18
420
        0
176
     1
 90
       50
176
     1
 90
        3
176
     1
 62
     5
420
      255
176
     1
290
     0
176
     1
 90
       50
176
     1
 90
       50
176
     1
 90
       50
176
     1
290
     0
176
     1
 90
       50
176
     1
 62
   256
176
     0
 40
1.0
176
     0
 90
        2
176
     1
  1
strokes_ogs.tif
176
     1
290
     0
176
     1
 40
1.0
176
     1
 40
1.0
176
     1
  0
VISUALSTYLE
  5
188
102
{ACAD_REACTORS
330
171
102
}
330
171
100
AcDbVisualStyle
  2
Shaded with edges
 70
    26
177
     3
291
     0
 70
    58
 90
        2
176
     1
 90
        2
176
     1
 90
        1
176
     1
 90
        2
176
     1
 40
0.6
176
     1
 40
30.0
176
     1
 62
     7
420
 16777215
176
     1
 90
        1
176
     1
 90
       10
176
     1
 62
     7
176
     1
 62
   257
176
     1
 90
        2
176
     1
 90
        1
176
     1
 40
1.0
176
     1
 90
        8
176
     1
 62
   257
176
     1
 40
1.0
176
     1
 90
        1
176
     1
 90
        6
176
     1
 90
        2
176
     1
 62
     7
176
     1
 90
        3
176
     1
 90
        0
176
     1
 90
        0
176
     1
290
     0
176
     1
 90
        5
176
     1
 40
0.0
176
     1
 90
        0
176
     1
290
     0
176
     1
290
     1
176
     1
290
     1
176
     1
290
     0
176
     1
290
     0
176
     1
290
     0
176
     1
290
     0
176
     1
290
     0
176
     1
290
     0
176
     1
 90
       50
176
     1
 40
0.0
176
     1
 40
1.0
176
     1
 90
        0
176
     1
 62
    18
420
        0
176
     1
 90
       50
176
     1
 90
        3
176
     1
 62
     5
420
      255
176
     1
290
     0
176
     1
 90
       50
176
     1
 90
       50
176
     1
 90
       50
176
     1
290
     0
176
     1
 90
       50
176
     1
 62
   256
176
     0
 40
1.0
176
     0
 90
        2
176
     1
  1
strokes_ogs.tif
176
     1
290
     0
176
     1
 40
1.0
176
     1
 40
1.0
176
     1
  0
VISUALSTYLE
  5
185
102
{ACAD_REACTORS
330
171
102
}
330
171
100
AcDbVisualStyle
  2
Shades of Gray
 70
    23
177
     3
291
     0
 70
    58
 90
        2
176
     1
 90
        2
176
     1
 90
        3
176
     1
 90
        0
176
     1
 40
0.6
176
     1
 40
30.0
176
     1
 62
     7
420
 16777215
176
     1
 90
        2
176
     1
 90
        2
176
     1
 62
     7
176
     1
 62
     7
176
     1
 90
        1
176
     1
 90
        1
176
     1
 40
40.0
176
     1
 90
        8
176
     1
 62
     7
176
     1
 40
1.0
176
     1
 90
        1
176
     1
 90
        6
176
     1
 90
        2
176
     1
 62
     7
176
     1
 90
        3
176
     1
 90
        0
176
     1
 90
        0
176
     1
290
     0
176
     1
 90
        1
176
     1
 40
0.0
176
     1
 90
        0
176
     1
290
     0
176
     1
290
     1
176
     1
290
     1
176
     1
290
     0
176
     1
290
     0
176
     1
290
     0
176
     1
290
     0
176
     1
290
     0
176
     1
290
     0
176
     1
 90
       50
176
     1
 40
0.0
176
     1
 40
1.0
176
     1
 90
        0
176
     1
 62
    18
420
        0
176
     1
 90
       50
176
     1
 90
        3
176
     1
 62
     5
420
      255
176
     1
290
     0
176
     1
 90
       50
176
     1
 90
       50
176
     1
 90
       50
176
     1
290
     0
176
     1
 90
       50
176
     1
 62
   256
176
     0
 40
1.0
176
     0
 90
        2
176
     1
  1
strokes_ogs.tif
176
     1
290
     0
176
     1
 40
1.0
176
     1
 40
1.0
176
     1
  0
VISUALSTYLE
  5
186
102
{ACAD_REACTORS
330
171
102
}
330
171
100
AcDbVisualStyle
  2
Sketchy
 70
    24
177
     3
291
     0
 70
    58
 90
        1
176
     1
 90
        2
176
     1
 90
        2
176
     1
 90
        0
176
     1
 40
0.6
176
     1
 40
30.0
176
     1
 62
     7
420
 16777215
176
     1
 90
        2
176
     1
 90
        2
176
     1
 62
     7
176
     1
 62
     7
176
     1
 90
        1
176
     1
 90
        1
176
     1
 40
40.0
176
     1
 90
       11
176
     1
 62
     7
176
     1
 40
1.0
176
     1
 90
        1
176
     1
 90
        6
176
     1
 90
        2
176
     1
 62
     7
176
     1
 90
        6
176
     1
 90
        0
176
     1
 90
        0
176
     1
290
     0
176
     1
 90
        1
176
     1
 40
0.0
176
     1
 90
        0
176
     1
290
     0
176
     1
290
     1
176
     1
290
     1
176
     1
290
     0
176
     1
290
     0
176
     1
290
     0
176
     1
290
     0
176
     1
290
     0
176
     1
290
     0
176
     1
 90
       50
176
     1
 40
0.0
176
     1
 40
1.0
176
     1
 90
        0
176
     1
 62
    18
420
        0
176
     1
 90
       50
176
     1
 90
        3
176
     1
 62
     5
420
      255
176
     1
290
     0
176
     1
 90
       50
176
     1
 90
       50
176
     1
 90
       50
176
     1
290
     0
176
     1
 90
       50
176
     1
 62
   256
176
     0
 40
1.0
176
     0
 90
        2
176
     1
  1
strokes_ogs.tif
176
     1
290
     0
176
     1
 40
1.0
176
     1
 40
1.0
176
     1
  0
VISUALSTYLE
  5
17E
102
{ACAD_REACTORS
330
171
102
}
330
171
100
AcDbVisualStyle
  2
Thicken
 70
    13
177
     3
291
     1
 70
    58
 90
        2
176
     1
 90
        2
176
     1
 90
        0
176
     1
 90
        0
176
     1
 40
0.6
176
     1
 40
30.0
176
     1
 62
     7
420
 16777215
176
     1
 90
        1
176
     1
 90
        4
176
     1
 62
     7
176
     1
 62
   257
176
     1
 90
        1
176
     1
 90
        1
176
     1
 40
1.0
176
     1
 90
       12
176
     1
 62
     7
176
     1
 40
1.0
176
     1
 90
        1
176
     1
 90
        6
176
     1
 90
        2
176
     1
 62
     7
176
     1
 90
        5
176
     1
 90
        0
176
     1
 90
        0
176
     1
290
     0
176
     1
 90
        1
176
     1
 40
0.0
176
     1
 90
        0
176
     1
290
     0
176
     1
290
     1
176
     1
290
     1
176
     1
290
     0
176
     1
290
     0
176
     1
290
     0
176
     1
290
     0
176
     1
290
     0
176
     1
290
     0
176
     1
 90
       50
176
     1
 40
0.0
176
     1
 40
1.0
176
     1
 90
        0
176
     1
 62
    18
420
        0
176
     1
 90
       50
176
     1
 90
        3
176
     1
 62
     5
420
      255
176
     1
290
     0
176
     1
 90
       50
176
     1
 90
       50
176
     1
 90
       50
176
     1
290
     0
176
     1
 90
       50
176
     1
 62
   256
176
     0
 40
1.0
176
     0
 90
        2
176
     1
  1
strokes_ogs.tif
176
     1
290
     0
176
     1
 40
1.0
176
     1
 40
1.0
176
     1
  0
VISUALSTYLE
  5
177
102
{ACAD_REACTORS
330
171
102
}
330
171
100
AcDbVisualStyle
  2
Wireframe
 70
     5
177
     3
291
     0
 70
    58
 90
        0
176
     1
 90
        2
176
     1
 90
        0
176
     1
 90
        0
176
     1
 40
0.6
176
     1
 40
30.0
176
     1
 62
     7
420
 16777215
176
     1
 90
        1
176
     1
 90
        4
176
     1
 62
     7
176
     1
 62
   257
176
     1
 90
        1
176
     1
 90
        1
176
     1
 40
1.0
176
     1
 90
        0
176
     1
 62
   257
176
     1
 40
1.0
176
     1
 90
        1
176
     1
 90
        6
176
     1
 90
        2
176
     1
 62
     7
176
     1
 90
        3
176
     1
 90
        0
176
     1
 90
        0
176
     1
290
     0
176
     1
 90
        1
176
     1
 40
0.0
176
     1
 90
        0
176
     1
290
     0
176
     1
290
     1
176
     1
290
     1
176
     1
290
     0
176
     1
290
     0
176
     1
290
     0
176
     1
290
     0
176
     1
290
     0
176
     1
290
     0
176
     1
 90
       50
176
     1
 40
0.0
176
     1
 40
1.0
176
     1
 90
        0
176
     1
 62
    18
420
        0
176
     1
 90
       50
176
     1
 90
        3
176
     1
 62
     5
420
      255
176
     1
290
     0
176
     1
 90
       50
176
     1
 90
       50
176
     1
 90
       50
176
     1
290
     0
176
     1
 90
       50
176
     1
 62
   256
176
     0
 40
1.0
176
     0
 90
        2
176
     1
  1
strokes_ogs.tif
176
     1
290
     0
176
     1
 40
1.0
176
     1
 40
1.0
176
     1
  0
VISUALSTYLE
  5
187
102
{ACAD_REACTORS
330
171
102
}
330
171
100
AcDbVisualStyle
  2
X-Ray
 70
    25
177
     3
291
     0
 70
    58
 90
        2
176
     1
 90
        2
176
     1
 90
        1
176
     1
 90
        1
176
     1
 40
0.5
176
     1
 40
30.0
176
     1
 62
     7
420
 16777215
176
     1
 90
        1
176
     1
 90
        0
176
     1
 62
     7
176
     1
 62
   257
176
     1
 90
        1
176
     1
 90
        1
176
     1
 40
1.0
176
     1
 90
        8
176
     1
 62
     7
176
     1
 40
1.0
176
     1
 90
        1
176
     1
 90
        6
176
     1
 90
        2
176
     1
 62
     7
176
     1
 90
        3
176
     1
 90
        0
176
     1
 90
        0
176
     1
290
     0
176
     1
 90
       13
176
     1
 40
0.0
176
     1
 90
        0
176
     1
290
     0
176
     1
290
     1
176
     1
290
     1
176
     1
290
     0
176
     1
290
     0
176
     1
290
     0
176
     1
290
     0
176
     1
290
     0
176
     1
290
     0
176
     1
 90
       50
176
     1
 40
0.0
176
     1
 40
1.0
176
     1
 90
        0
176
     1
 62
    18
420
        0
176
     1
 90
       50
176
     1
 90
        3
176
     1
 62
     5
420
      255
176
     1
290
     0
176
     1
 90
       50
176
     1
 90
       50
176
     1
 90
       50
176
     1
290
     0
176
     1
 90
       50
176
     1
 62
   256
176
     0
 40
1.0
176
     0
 90
        2
176
     1
  1
strokes_ogs.tif
176
     1
290
     0
176
     1
 40
1.0
176
     1
 40
1.0
176
     1
  0
DICTIONARYVAR
  5
196
102
{ACAD_REACTORS
330
195
102
}
330
195
100
DictionaryVariables
280
     0
  1
1:1
  0
DICTIONARYVAR
  5
198
102
{ACAD_REACTORS
330
195
102
}
330
195
100
DictionaryVariables
280
     0
  1
Standard
  0
DICTIONARYVAR
  5
197
102
{ACAD_REACTORS
330
195
102
}
330
195
100
DictionaryVariables
280
     0
  1
Standard
  0
DICTIONARY
  5
1A2
330
18F
100
AcDbDictionary
280
     1
281
     1
  3
ACAD_ROUNDTRIP_2008_TABLESTYLE_CELLSTYLEMAP
360
1A3
  0
CELLSTYLEMAP
  5
1A3
102
{ACAD_REACTORS
330
1A2
102
}
330
1A2
100
AcDbCellStyleMap
 90
        3
300
CELLSTYLE
  1
TABLEFORMAT_BEGIN
 90
        5
170
     1
 91
        0
 92
    32768
 62
   257
 93
        1
300
CONTENTFORMAT
  1
CONTENTFORMAT_BEGIN
 90
        0
 91
        0
 92
        4
 93
        0
300

 40
0.0
140
1.0
 94
        5
 62
     0
340
22
144
0.25
309
CONTENTFORMAT_END
171
     1
301
MARGIN
  1
CELLMARGIN_BEGIN
 40
0.06
 40
0.06
 40
0.06
 40
0.06
 40
0.06
 40
0.06
309
CELLMARGIN_END
 94
        6
 95
        1
302
GRIDFORMAT
  1
GRIDFORMAT_BEGIN
 90
        0
 91
        1
 62
     0
 92
       -2
340
10
 93
        0
 40
0.045
309
GRIDFORMAT_END
 95
        2
302
GRIDFORMAT
  1
GRIDFORMAT_BEGIN
 90
        0
 91
        1
 62
     0
 92
       -2
340
10
 93
        0
 40
0.045
309
GRIDFORMAT_END
 95
        4
302
GRIDFORMAT
  1
GRIDFORMAT_BEGIN
 90
        0
 91
        1
 62
     0
 92
       -2
340
10
 93
        0
 40
0.045
309
GRIDFORMAT_END
 95
        8
302
GRIDFORMAT
  1
GRIDFORMAT_BEGIN
 90
        0
 91
        1
 62
     0
 92
       -2
340
10
 93
        0
 40
0.045
309
GRIDFORMAT_END
 95
       16
302
GRIDFORMAT
  1
GRIDFORMAT_BEGIN
 90
        0
 91
        1
 62
     0
 92
       -2
340
10
 93
        0
 40
0.045
309
GRIDFORMAT_END
 95
       32
302
GRIDFORMAT
  1
GRIDFORMAT_BEGIN
 90
        0
 91
        1
 62
     0
 92
       -2
340
10
 93
        0
 40
0.045
309
GRIDFORMAT_END
309
TABLEFORMAT_END
  1
CELLSTYLE_BEGIN
 90
        1
 91
        1
300
_TITLE
309
CELLSTYLE_END
300
CELLSTYLE
  1
TABLEFORMAT_BEGIN
 90
        5
170
     1
 91
        0
 92
        0
 62
   257
 93
        1
300
CONTENTFORMAT
  1
CONTENTFORMAT_BEGIN
 90
        0
 91
        0
 92
        4
 93
        0
300

 40
0.0
140
1.0
 94
        5
 62
     0
340
22
144
0.18
309
CONTENTFORMAT_END
171
     1
301
MARGIN
  1
CELLMARGIN_BEGIN
 40
0.06
 40
0.06
 40
0.06
 40
0.06
 40
0.06
 40
0.06
309
CELLMARGIN_END
 94
        6
 95
        1
302
GRIDFORMAT
  1
GRIDFORMAT_BEGIN
 90
        0
 91
        1
 62
     0
 92
       -2
340
10
 93
        0
 40
0.045
309
GRIDFORMAT_END
 95
        2
302
GRIDFORMAT
  1
GRIDFORMAT_BEGIN
 90
        0
 91
        1
 62
     0
 92
       -2
340
10
 93
        0
 40
0.045
309
GRIDFORMAT_END
 95
        4
302
GRIDFORMAT
  1
GRIDFORMAT_BEGIN
 90
        0
 91
        1
 62
     0
 92
       -2
340
10
 93
        0
 40
0.045
309
GRIDFORMAT_END
 95
        8
302
GRIDFORMAT
  1
GRIDFORMAT_BEGIN
 90
        0
 91
        1
 62
     0
 92
       -2
340
10
 93
        0
 40
0.045
309
GRIDFORMAT_END
 95
       16
302
GRIDFORMAT
  1
GRIDFORMAT_BEGIN
 90
        0
 91
        1
 62
     0
 92
       -2
340
10
 93
        0
 40
0.045
309
GRIDFORMAT_END
 95
       32
302
GRIDFORMAT
  1
GRIDFORMAT_BEGIN
 90
        0
 91
        1
 62
     0
 92
       -2
340
10
 93
        0
 40
0.045
309
GRIDFORMAT_END
309
TABLEFORMAT_END
  1
CELLSTYLE_BEGIN
 90
        2
 91
        1
300
_HEADER
309
CELLSTYLE_END
300
CELLSTYLE
  1
TABLEFORMAT_BEGIN
 90
        5
170
     1
 91
        0
 92
        0
 62
   257
 93
        1
300
CONTENTFORMAT
  1
CONTENTFORMAT_BEGIN
 90
        0
 91
        0
 92
        4
 93
        0
300

 40
0.0
140
1.0
 94
        2
 62
     0
340
22
144
0.18
309
CONTENTFORMAT_END
171
     1
301
MARGIN
  1
CELLMARGIN_BEGIN
 40
0.06
 40
0.06
 40
0.06
 40
0.06
 40
0.06
 40
0.06
309
CELLMARGIN_END
 94
        6
 95
        1
302
GRIDFORMAT
  1
GRIDFORMAT_BEGIN
 90
        0
 91
        1
 62
     0
 92
       -2
340
10
 93
        0
 40
0.045
309
GRIDFORMAT_END
 95
        2
302
GRIDFORMAT
  1
GRIDFORMAT_BEGIN
 90
        0
 91
        1
 62
     0
 92
       -2
340
10
 93
        0
 40
0.045
309
GRIDFORMAT_END
 95
        4
302
GRIDFORMAT
  1
GRIDFORMAT_BEGIN
 90
        0
 91
        1
 62
     0
 92
       -2
340
10
 93
        0
 40
0.045
309
GRIDFORMAT_END
 95
        8
302
GRIDFORMAT
  1
GRIDFORMAT_BEGIN
 90
        0
 91
        1
 62
     0
 92
       -2
340
10
 93
        0
 40
0.045
309
GRIDFORMAT_END
 95
       16
302
GRIDFORMAT
  1
GRIDFORMAT_BEGIN
 90
        0
 91
        1
 62
     0
 92
       -2
340
10
 93
        0
 40
0.045
309
GRIDFORMAT_END
 95
       32
302
GRIDFORMAT
  1
GRIDFORMAT_BEGIN
 90
        0
 91
        1
 62
     0
 92
       -2
340
10
 93
        0
 40
0.045
309
GRIDFORMAT_END
309
TABLEFORMAT_END
  1
CELLSTYLE_BEGIN
 90
        3
 91
        2
300
_DATA
309
CELLSTYLE_END
  0
ENDSEC
  0
EOF
